  0
SECTION
  2
HEADER
  9
$ACADVER
  1
AC1018
  9
$ACADMAINTVER
 70
   104
  9
$DWGCODEPAGE
  3
ANSI_1252
  9
$LASTSAVEDBY
  1
MLundby
  9
$INSBASE
 10
0.0
 20
0.0
 30
0.0
  9
$EXTMIN
 10
-2514.039196035648
 20
-1089.466052973323
 30
-0.0000000349181948
  9
$EXTMAX
 10
-413.7241247962593
 20
1880.896506919337
 30
0.0000000814935746
  9
$LIMMIN
 10
0.0
 20
0.0
  9
$LIMMAX
 10
420.0
 20
297.0
  9
$ORTHOMODE
 70
     0
  9
$REGENMODE
 70
     1
  9
$FILLMODE
 70
     1
  9
$QTEXTMODE
 70
     0
  9
$MIRRTEXT
 70
     1
  9
$LTSCALE
 40
5.0
  9
$ATTMODE
 70
     1
  9
$TEXTSIZE
 40
2.5
  9
$TRACEWID
 40
1.0
  9
$TEXTSTYLE
  7
STANDARD
  9
$CLAYER
  8
SX$17
  9
$CELTYPE
  6
BYLAYER
  9
$CECOLOR
 62
   256
  9
$CELTSCALE
 40
1.0
  9
$DISPSILH
 70
     0
  9
$DIMSCALE
 40
1.0
  9
$DIMASZ
 40
0.18
  9
$DIMEXO
 40
0.0625
  9
$DIMDLI
 40
0.38
  9
$DIMRND
 40
0.0
  9
$DIMDLE
 40
0.0
  9
$DIMEXE
 40
0.18
  9
$DIMTP
 40
0.0
  9
$DIMTM
 40
0.0
  9
$DIMTXT
 40
0.18
  9
$DIMCEN
 40
0.09
  9
$DIMTSZ
 40
0.0
  9
$DIMTOL
 70
     0
  9
$DIMLIM
 70
     0
  9
$DIMTIH
 70
     0
  9
$DIMTOH
 70
     1
  9
$DIMSE1
 70
     0
  9
$DIMSE2
 70
     0
  9
$DIMTAD
 70
     1
  9
$DIMZIN
 70
     0
  9
$DIMBLK
  1

  9
$DIMASO
 70
     1
  9
$DIMSHO
 70
     1
  9
$DIMPOST
  1

  9
$DIMAPOST
  1

  9
$DIMALT
 70
     0
  9
$DIMALTD
 70
     2
  9
$DIMALTF
 40
25.4
  9
$DIMLFAC
 40
1.0
  9
$DIMTOFL
 70
     0
  9
$DIMTVP
 40
0.0
  9
$DIMTIX
 70
     0
  9
$DIMSOXD
 70
     0
  9
$DIMSAH
 70
     0
  9
$DIMBLK1
  1

  9
$DIMBLK2
  1

  9
$DIMSTYLE
  2
STANDARD
  9
$DIMCLRD
 70
     0
  9
$DIMCLRE
 70
     0
  9
$DIMCLRT
 70
     0
  9
$DIMTFAC
 40
1.0
  9
$DIMGAP
 40
0.09
  9
$DIMJUST
 70
     0
  9
$DIMSD1
 70
     0
  9
$DIMSD2
 70
     0
  9
$DIMTOLJ
 70
     1
  9
$DIMTZIN
 70
     0
  9
$DIMALTZ
 70
     0
  9
$DIMALTTZ
 70
     0
  9
$DIMUPT
 70
     0
  9
$DIMDEC
 70
     0
  9
$DIMTDEC
 70
     0
  9
$DIMALTU
 70
     2
  9
$DIMALTTD
 70
     2
  9
$DIMTXSTY
  7
ARIAL
  9
$DIMAUNIT
 70
     0
  9
$DIMADEC
 70
     0
  9
$DIMALTRND
 40
0.0
  9
$DIMAZIN
 70
     0
  9
$DIMDSEP
 70
    46
  9
$DIMATFIT
 70
     3
  9
$DIMFRAC
 70
     0
  9
$DIMLDRBLK
  1

  9
$DIMLUNIT
 70
     2
  9
$DIMLWD
 70
    -2
  9
$DIMLWE
 70
    -2
  9
$DIMTMOVE
 70
     0
  9
$LUNITS
 70
     2
  9
$LUPREC
 70
     4
  9
$SKETCHINC
 40
1.0
  9
$FILLETRAD
 40
0.0
  9
$AUNITS
 70
     0
  9
$AUPREC
 70
     0
  9
$MENU
  1
.
  9
$ELEVATION
 40
0.0
  9
$PELEVATION
 40
0.0
  9
$THICKNESS
 40
0.0
  9
$LIMCHECK
 70
     0
  9
$CHAMFERA
 40
10.0
  9
$CHAMFERB
 40
10.0
  9
$CHAMFERC
 40
20.0
  9
$CHAMFERD
 40
0.0
  9
$SKPOLY
 70
     0
  9
$TDCREATE
 40
2453234.618597465
  9
$TDUCREATE
 40
2453234.535264132
  9
$TDUPDATE
 40
2456078.600885255
  9
$TDUUPDATE
 40
2456078.517551921
  9
$TDINDWG
 40
5.1935650231
  9
$TDUSRTIMER
 40
5.1935648380
  9
$USRTIMER
 70
     1
  9
$ANGBASE
 50
0.0
  9
$ANGDIR
 70
     0
  9
$PDMODE
 70
     0
  9
$PDSIZE
 40
0.0
  9
$PLINEWID
 40
0.0
  9
$SPLFRAME
 70
     0
  9
$SPLINETYPE
 70
     6
  9
$SPLINESEGS
 70
     8
  9
$HANDSEED
  5
111B5
  9
$SURFTAB1
 70
     6
  9
$SURFTAB2
 70
     6
  9
$SURFTYPE
 70
     6
  9
$SURFU
 70
     6
  9
$SURFV
 70
     6
  9
$UCSBASE
  2

  9
$UCSNAME
  2

  9
$UCSORG
 10
0.0
 20
0.0
 30
0.0
  9
$UCSXDIR
 10
1.0
 20
0.0
 30
0.0
  9
$UCSYDIR
 10
0.0
 20
1.0
 30
0.0
  9
$UCSORTHOREF
  2

  9
$UCSORTHOVIEW
 70
     0
  9
$UCSORGTOP
 10
0.0
 20
0.0
 30
0.0
  9
$UCSORGBOTTOM
 10
0.0
 20
0.0
 30
0.0
  9
$UCSORGLEFT
 10
0.0
 20
0.0
 30
0.0
  9
$UCSORGRIGHT
 10
0.0
 20
0.0
 30
0.0
  9
$UCSORGFRONT
 10
0.0
 20
0.0
 30
0.0
  9
$UCSORGBACK
 10
0.0
 20
0.0
 30
0.0
  9
$PUCSBASE
  2

  9
$PUCSNAME
  2

  9
$PUCSORG
 10
0.0
 20
0.0
 30
0.0
  9
$PUCSXDIR
 10
1.0
 20
0.0
 30
0.0
  9
$PUCSYDIR
 10
0.0
 20
1.0
 30
0.0
  9
$PUCSORTHOREF
  2

  9
$PUCSORTHOVIEW
 70
     0
  9
$PUCSORGTOP
 10
0.0
 20
0.0
 30
0.0
  9
$PUCSORGBOTTOM
 10
0.0
 20
0.0
 30
0.0
  9
$PUCSORGLEFT
 10
0.0
 20
0.0
 30
0.0
  9
$PUCSORGRIGHT
 10
0.0
 20
0.0
 30
0.0
  9
$PUCSORGFRONT
 10
0.0
 20
0.0
 30
0.0
  9
$PUCSORGBACK
 10
0.0
 20
0.0
 30
0.0
  9
$USERI1
 70
     0
  9
$USERI2
 70
     0
  9
$USERI3
 70
     0
  9
$USERI4
 70
     0
  9
$USERI5
 70
     0
  9
$USERR1
 40
0.0
  9
$USERR2
 40
0.0
  9
$USERR3
 40
0.0
  9
$USERR4
 40
0.0
  9
$USERR5
 40
0.0
  9
$WORLDVIEW
 70
     1
  9
$SHADEDGE
 70
     3
  9
$SHADEDIF
 70
    70
  9
$TILEMODE
 70
     1
  9
$MAXACTVP
 70
    48
  9
$PINSBASE
 10
0.0
 20
0.0
 30
0.0
  9
$PLIMCHECK
 70
     0
  9
$PEXTMIN
 10
0.0
 20
0.0
 30
0.0
  9
$PEXTMAX
 10
0.0
 20
0.0
 30
0.0
  9
$PLIMMIN
 10
0.0
 20
0.0
  9
$PLIMMAX
 10
12.0
 20
9.0
  9
$UNITMODE
 70
     0
  9
$VISRETAIN
 70
     1
  9
$PLINEGEN
 70
     0
  9
$PSLTSCALE
 70
     1
  9
$TREEDEPTH
 70
  3020
  9
$CMLSTYLE
  2
STANDARD
  9
$CMLJUST
 70
     0
  9
$CMLSCALE
 40
20.0
  9
$PROXYGRAPHICS
 70
     1
  9
$MEASUREMENT
 70
     1
  9
$CELWEIGHT
370
    -1
  9
$ENDCAPS
280
     0
  9
$JOINSTYLE
280
     0
  9
$LWDISPLAY
290
     0
  9
$INSUNITS
 70
     0
  9
$HYPERLINKBASE
  1

  9
$STYLESHEET
  1
monochrome.ctb
  9
$XEDIT
290
     1
  9
$CEPSNTYPE
380
     0
  9
$PSTYLEMODE
290
     1
  9
$FINGERPRINTGUID
  2
{37A4F790-B665-43DF-9FC5-B3B2C3BCEE58}
  9
$VERSIONGUID
  2
{BA59AEDD-6F2A-4A1B-BA86-256A129E31ED}
  9
$EXTNAMES
290
     1
  9
$PSVPSCALE
 40
0.0
  9
$OLESTARTUP
290
     0
  9
$SORTENTS
280
   127
  9
$INDEXCTL
280
     0
  9
$HIDETEXT
280
     0
  9
$XCLIPFRAME
290
     0
  9
$HALOGAP
280
     0
  9
$OBSCOLOR
 70
   257
  9
$OBSLTYPE
280
     0
  9
$INTERSECTIONDISPLAY
280
     0
  9
$INTERSECTIONCOLOR
 70
   257
  9
$DIMASSOC
280
     1
  9
$PROJECTNAME
  1

  0
ENDSEC
  0
SECTION
  2
CLASSES
  0
CLASS
  1
ACDBDICTIONARYWDFLT
  2
AcDbDictionaryWithDefault
  3
ObjectDBX Classes
 90
        0
 91
        1
280
     0
281
     0
  0
CLASS
  1
DICTIONARYVAR
  2
AcDbDictionaryVar
  3
ObjectDBX Classes
 90
        0
 91
        9
280
     0
281
     0
  0
CLASS
  1
SORTENTSTABLE
  2
AcDbSortentsTable
  3
ObjectDBX Classes
 90
        0
 91
        9
280
     0
281
     0
  0
CLASS
  1
MATERIAL
  2
AcDbMaterial
  3
ObjectDBX Classes
 90
     1153
 91
        3
280
     0
281
     0
  0
CLASS
  1
VISUALSTYLE
  2
AcDbVisualStyle
  3
ObjectDBX Classes
 90
     4095
 91
       26
280
     0
281
     0
  0
CLASS
  1
TABLESTYLE
  2
AcDbTableStyle
  3
ObjectDBX Classes
 90
     4095
 91
        1
280
     0
281
     0
  0
CLASS
  1
SCALE
  2
AcDbScale
  3
ObjectDBX Classes
 90
     1153
 91
       17
280
     0
281
     0
  0
CLASS
  1
MLEADERSTYLE
  2
AcDbMLeaderStyle
  3
ACDB_MLEADERSTYLE_CLASS
 90
     4095
 91
        1
280
     0
281
     0
  0
CLASS
  1
IMAGE
  2
AcDbRasterImage
  3
ISM
 90
     2175
 91
        0
280
     0
281
     1
  0
CLASS
  1
IMAGEDEF_REACTOR
  2
AcDbRasterImageDefReactor
  3
ISM
 90
        1
 91
        0
280
     0
281
     0
  0
CLASS
  1
IMAGEDEF
  2
AcDbRasterImageDef
  3
ISM
 90
        0
 91
        1
280
     0
281
     0
  0
CLASS
  1
RASTERVARIABLES
  2
AcDbRasterVariables
  3
ISM
 90
        0
 91
        1
280
     0
281
     0
  0
CLASS
  1
ACDBASSOCNETWORK
  2
AcDbAssocNetwork
  3
ObjectDBX Classes
 90
     1025
 91
        0
280
     0
281
     0
  0
CLASS
  1
ACDBASSOC2DCONSTRAINTGROUP
  2
AcDbAssoc2dConstraintGroup
  3
ObjectDBX Classes
 90
     1025
 91
        0
280
     0
281
     0
  0
CLASS
  1
ACDBASSOCGEOMDEPENDENCY
  2
AcDbAssocGeomDependency
  3
ObjectDBX Classes
 90
     1025
 91
        0
280
     0
281
     0
  0
CLASS
  1
CELLSTYLEMAP
  2
AcDbCellStyleMap
  3
ObjectDBX Classes
 90
     1152
 91
        1
280
     0
281
     0
  0
CLASS
  1
EXACXREFPANELOBJECT
  2
ExAcXREFPanelObject
  3
EXAC_ESW
 90
     1025
 91
        0
280
     0
281
     0
  0
CLASS
  1
NPOCOLLECTION
  2
AcDbImpNonPersistentObjectsCollection
  3
ObjectDBX Classes
 90
     1153
 91
        0
280
     0
281
     0
  0
CLASS
  1
ACAD_EVALUATION_GRAPH
  2
AcDbEvalGraph
  3
ObjectDBX Classes
 90
     1153
 91
        0
280
     0
281
     0
  0
CLASS
  1
ACAECUSTOBJ
  2
AcAeEditorObj
  3
AcAeEditorObj
 90
     1024
 91
        0
280
     0
281
     0
  0
CLASS
  1
ACDB_DYNAMICBLOCKPURGEPREVENTER_VERSION
  2
AcDbDynamicBlockPurgePreventer
  3
ObjectDBX Classes
 90
     1153
 91
        0
280
     0
281
     0
  0
ENDSEC
  0
SECTION
  2
TABLES
  0
TABLE
  2
VPORT
  5
8
330
0
100
AcDbSymbolTable
 70
     1
  0
VPORT
  5
10757
330
8
100
AcDbSymbolTableRecord
100
AcDbViewportTableRecord
  2
*Active
 70
     0
 10
0.0
 20
0.0
 11
1.0
 21
1.0
 12
-826.5862708209379
 22
317.6973561661498
 13
0.0
 23
0.0
 14
10.0
 24
10.0
 15
10.0
 25
10.0
 16
0.0
 26
0.0
 36
1.0
 17
0.0
 27
0.0
 37
0.0
 40
4461.865647476587
 41
1.986789960369881
 42
50.0
 43
0.0
 44
0.0
 50
0.0
 51
0.0
 71
     0
 72
   100
 73
     1
 74
     1
 75
     0
 76
     0
 77
     0
 78
     0
281
     0
 65
     1
110
0.0
120
0.0
130
0.0
111
1.0
121
0.0
131
0.0
112
0.0
122
1.0
132
0.0
 79
     0
146
0.0
1001
ACAD_NAV_VCDISPLAY
1070
     3
  0
ENDTAB
  0
TABLE
  2
LTYPE
  5
5
330
0
100
AcDbSymbolTable
 70
     5
  0
LTYPE
  5
12
330
5
100
AcDbSymbolTableRecord
100
AcDbLinetypeTableRecord
  2
BYBLOCK
 70
     0
  3

 72
    65
 73
     0
 40
0.0
  0
LTYPE
  5
13
330
5
100
AcDbSymbolTableRecord
100
AcDbLinetypeTableRecord
  2
BYLAYER
 70
     0
  3

 72
    65
 73
     0
 40
0.0
  0
LTYPE
  5
14
330
5
100
AcDbSymbolTableRecord
100
AcDbLinetypeTableRecord
  2
CONTINUOUS
 70
     0
  3
Solid line
 72
    65
 73
     0
 40
0.0
  0
LTYPE
  5
62
330
5
100
AcDbSymbolTableRecord
100
AcDbLinetypeTableRecord
  2
SNIT2
 70
     0
  3
_______________________________ _ _ ___________
 72
    65
 73
     6
 40
20.0
 49
10.0
 74
     0
 49
-2.0
 74
     0
 49
2.0
 74
     0
 49
-2.0
 74
     0
 49
2.0
 74
     0
 49
-2.0
 74
     0
  0
LTYPE
  5
A7B
330
5
100
AcDbSymbolTableRecord
100
AcDbLinetypeTableRecord
  2
DASHED2
 70
     0
  3
Dashed (.5x) _ _ _ _ _ _ _ _ _ _ _ _ _ _ _ _ _
 72
    65
 73
     2
 40
9.524999999999998
 49
6.349999999999999
 74
     0
 49
-3.174999999999999
 74
     0
  0
LTYPE
  5
A83
330
5
100
AcDbSymbolTableRecord
100
AcDbLinetypeTableRecord
  2
HIDDEN2
 70
     0
  3
Hidden (.5x) _ _ _ _ _ _ _ _ _ _ _ _ _ _ _ _ _
 72
    65
 73
     2
 40
4.762499999999999
 49
3.174999999999999
 74
     0
 49
-1.587499999999999
 74
     0
  0
ENDTAB
  0
TABLE
  2
LAYER
  5
2
102
{ACAD_XDICTIONARY
360
BE
102
}
330
0
100
AcDbSymbolTable
 70
    19
  0
LAYER
  5
E
102
{ACAD_XDICTIONARY
360
10982
102
}
330
2
100
AcDbSymbolTableRecord
100
AcDbLayerTableRecord
  2
0
 70
     0
 62
     7
  6
CONTINUOUS
370
    -3
390
8C
  0
LAYER
  5
20
102
{ACAD_XDICTIONARY
360
10984
102
}
330
2
100
AcDbSymbolTableRecord
100
AcDbLayerTableRecord
  2
LAFARGE99-I--
 70
     0
 62
    30
  6
CONTINUOUS
370
    -3
390
8C
  0
LAYER
  5
29
102
{ACAD_XDICTIONARY
360
10986
102
}
330
2
100
AcDbSymbolTableRecord
100
AcDbLayerTableRecord
  2
LAFARGE99--T-
 70
     0
 62
     1
  6
CONTINUOUS
370
    -3
390
8C
  0
LAYER
  5
2F
102
{ACAD_XDICTIONARY
360
10988
102
}
330
2
100
AcDbSymbolTableRecord
100
AcDbLayerTableRecord
  2
LAFARGE99-A--1
 70
     0
 62
     6
  6
CONTINUOUS
370
    -3
390
8C
  0
LAYER
  5
3E
102
{ACAD_XDICTIONARY
360
1098A
102
}
330
2
100
AcDbSymbolTableRecord
100
AcDbLayerTableRecord
  2
LAFARGE99-O--
 70
     0
 62
     1
  6
CONTINUOUS
370
    -3
390
8C
  0
LAYER
  5
44
102
{ACAD_XDICTIONARY
360
1098C
102
}
330
2
100
AcDbSymbolTableRecord
100
AcDbLayerTableRecord
  2
LAFARGE99-S--1
 70
     0
 62
     9
  6
CONTINUOUS
370
    -3
390
8C
  0
LAYER
  5
69
102
{ACAD_XDICTIONARY
360
1098E
102
}
330
2
100
AcDbSymbolTableRecord
100
AcDbLayerTableRecord
  2
LAFARGE09-H--
 70
     0
 62
     3
  6
CONTINUOUS
370
    -3
390
8C
  0
LAYER
  5
6C
102
{ACAD_XDICTIONARY
360
10990
102
}
330
2
100
AcDbSymbolTableRecord
100
AcDbLayerTableRecord
  2
LAFARGE09-S--
 70
     0
 62
     1
  6
CONTINUOUS
370
    -3
390
8C
  0
LAYER
  5
6D
102
{ACAD_XDICTIONARY
360
10992
102
}
330
2
100
AcDbSymbolTableRecord
100
AcDbLayerTableRecord
  2
LAFARGE09-C--
 70
     0
 62
     3
  6
SNIT2
370
    -3
390
8C
  0
LAYER
  5
A1
102
{ACAD_XDICTIONARY
360
10994
102
}
330
2
100
AcDbSymbolTableRecord
100
AcDbLayerTableRecord
  2
LAFARGE99--S-2
 70
     0
 62
     8
  6
CONTINUOUS
370
    -3
390
8C
  0
LAYER
  5
A94
102
{ACAD_XDICTIONARY
360
10996
102
}
330
2
100
AcDbSymbolTableRecord
100
AcDbLayerTableRecord
  2
LAFARGE99-A--3
 70
     0
 62
     6
  6
HIDDEN2
370
    -3
390
8C
  0
LAYER
  5
A98
102
{ACAD_XDICTIONARY
360
10998
102
}
330
2
100
AcDbSymbolTableRecord
100
AcDbLayerTableRecord
  2
LAFARGE99-A--6
 70
     0
 62
     8
  6
DASHED2
370
    -3
390
8C
  0
LAYER
  5
A99
102
{ACAD_XDICTIONARY
360
1099A
102
}
330
2
100
AcDbSymbolTableRecord
100
AcDbLayerTableRecord
  2
LAFARGE99-A--7
 70
     0
 62
     1
  6
CONTINUOUS
370
    -3
390
8C
  0
LAYER
  5
A9A
102
{ACAD_XDICTIONARY
360
1099C
102
}
330
2
100
AcDbSymbolTableRecord
100
AcDbLayerTableRecord
  2
LAFARGE99-A--8
 70
     0
 62
     2
  6
CONTINUOUS
370
    -3
390
8C
  0
LAYER
  5
AA5
102
{ACAD_XDICTIONARY
360
1099E
102
}
330
2
100
AcDbSymbolTableRecord
100
AcDbLayerTableRecord
  2
LAFARGE99-M--2
 70
     0
 62
    52
  6
CONTINUOUS
370
    -3
390
8C
  0
LAYER
  5
AA9
102
{ACAD_XDICTIONARY
360
109A0
102
}
330
2
100
AcDbSymbolTableRecord
100
AcDbLayerTableRecord
  2
LAFARGE99-T--
 70
     0
 62
     3
  6
CONTINUOUS
370
    -3
390
8C
  0
LAYER
  5
10844
330
2
100
AcDbSymbolTableRecord
100
AcDbLayerTableRecord
  2
Defpoints
 70
     0
 62
     7
  6
CONTINUOUS
290
     0
370
    -3
390
8C
  0
LAYER
  5
10FCF
102
{ACAD_XDICTIONARY
360
10FD0
102
}
330
2
100
AcDbSymbolTableRecord
100
AcDbLayerTableRecord
  2
A99--S-
 70
     0
 62
     8
  6
CONTINUOUS
370
    13
390
8C
  0
LAYER
  5
10FD1
330
2
100
AcDbSymbolTableRecord
100
AcDbLayerTableRecord
  2
SX$17
 70
     0
 62
     7
420
 16777215
  6
CONTINUOUS
370
    -3
390
8C
  0
ENDTAB
  0
TABLE
  2
STYLE
  5
3
330
0
100
AcDbSymbolTable
 70
     4
  0
STYLE
  5
F
330
3
100
AcDbSymbolTableRecord
100
AcDbTextStyleTableRecord
  2
STANDARD
 70
     0
 40
0.0
 41
1.0
 50
0.0
 71
     0
 42
2.5
  3
txt
  4

  0
STYLE
  5
1CC
330
3
100
AcDbSymbolTableRecord
100
AcDbTextStyleTableRecord
  2
ARIAL
 70
     0
 40
0.0
 41
1.0
 50
0.0
 71
     0
 42
2.0
  3
arial.ttf
  4

1001
ACAD
1000
Arial
1071
       34
  0
STYLE
  5
1CD
330
3
100
AcDbSymbolTableRecord
100
AcDbTextStyleTableRecord
  2
ARIAL-F
 70
     0
 40
1.0
 41
1.0
 50
0.0
 71
     0
 42
1.0
  3
arialbd.ttf
  4

1001
ACAD
1000
Arial
1071
 33554466
  0
ENDTAB
  0
TABLE
  2
VIEW
  5
6
330
0
100
AcDbSymbolTable
 70
     0
  0
ENDTAB
  0
TABLE
  2
UCS
  5
7
330
0
100
AcDbSymbolTable
 70
     0
  0
ENDTAB
  0
TABLE
  2
APPID
  5
9
330
0
100
AcDbSymbolTable
 70
    26
  0
APPID
  5
10
330
9
100
AcDbSymbolTableRecord
100
AcDbRegAppTableRecord
  2
ACAD
 70
     0
  0
APPID
  5
D0D
330
9
100
AcDbSymbolTableRecord
100
AcDbRegAppTableRecord
  2
CONTENTTABDATA
 70
     0
  0
APPID
  5
D0E
330
9
100
AcDbSymbolTableRecord
100
AcDbRegAppTableRecord
  2
CONTENTCURRENTTAB
 70
     0
  0
APPID
  5
D0F
330
9
100
AcDbSymbolTableRecord
100
AcDbRegAppTableRecord
  2
CONTENTBLOCKICON
 70
     0
  0
APPID
  5
D10
330
9
100
AcDbSymbolTableRecord
100
AcDbRegAppTableRecord
  2
CONTENTBLOCKDESCRIPTION
 70
     0
  0
APPID
  5
D8F
330
9
100
AcDbSymbolTableRecord
100
AcDbRegAppTableRecord
  2
XREFCLIP
 70
     0
  0
APPID
  5
D90
330
9
100
AcDbSymbolTableRecord
100
AcDbRegAppTableRecord
  2
DCO15
 70
     0
  0
APPID
  5
D91
330
9
100
AcDbSymbolTableRecord
100
AcDbRegAppTableRecord
  2
ADE
 70
     0
  0
APPID
  5
D92
330
9
100
AcDbSymbolTableRecord
100
AcDbRegAppTableRecord
  2
AME_SOL
 70
     0
  0
APPID
  5
D93
330
9
100
AcDbSymbolTableRecord
100
AcDbRegAppTableRecord
  2
AVE_RENDER
 70
     0
  0
APPID
  5
D94
330
9
100
AcDbSymbolTableRecord
100
AcDbRegAppTableRecord
  2
AVE_ENTITY_MATERIAL
 70
     0
  0
APPID
  5
D95
330
9
100
AcDbSymbolTableRecord
100
AcDbRegAppTableRecord
  2
AVE_FINISH
 70
     0
  0
APPID
  5
D96
330
9
100
AcDbSymbolTableRecord
100
AcDbRegAppTableRecord
  2
AVE_MATERIAL
 70
     0
  0
APPID
  5
D97
330
9
100
AcDbSymbolTableRecord
100
AcDbRegAppTableRecord
  2
AVE_GLOBAL
 70
     0
  0
APPID
  5
D98
330
9
100
AcDbSymbolTableRecord
100
AcDbRegAppTableRecord
  2
RAK
 70
     0
  0
APPID
  5
10810
330
9
100
AcDbSymbolTableRecord
100
AcDbRegAppTableRecord
  2
ACAD_NAV_VCDISPLAY
 70
     0
  0
APPID
  5
10811
330
9
100
AcDbSymbolTableRecord
100
AcDbRegAppTableRecord
  2
ACAD_PSEXT
 70
     0
  0
APPID
  5
10827
330
9
100
AcDbSymbolTableRecord
100
AcDbRegAppTableRecord
  2
ACAD_EXEMPT_FROM_CAD_STANDARDS
 70
     0
  0
APPID
  5
10969
330
9
100
AcDbSymbolTableRecord
100
AcDbRegAppTableRecord
  2
ACAD_DSTYLE_DIMJAG
 70
     0
  0
APPID
  5
1096A
330
9
100
AcDbSymbolTableRecord
100
AcDbRegAppTableRecord
  2
ACAD_DSTYLE_DIMTALN
 70
     0
  0
APPID
  5
10A69
330
9
100
AcDbSymbolTableRecord
100
AcDbRegAppTableRecord
  2
ACAD_MLEADERVER
 70
     0
  0
APPID
  5
10AC1
330
9
100
AcDbSymbolTableRecord
100
AcDbRegAppTableRecord
  2
ACAUTHENVIRON
 70
     0
  0
APPID
  5
10AFF
330
9
100
AcDbSymbolTableRecord
100
AcDbRegAppTableRecord
  2
AcDbDynamicBlockTrueName
 70
     0
  0
APPID
  5
10B00
330
9
100
AcDbSymbolTableRecord
100
AcDbRegAppTableRecord
  2
AcDbDynamicBlockGUID
 70
     0
  0
APPID
  5
10E87
330
9
100
AcDbSymbolTableRecord
100
AcDbRegAppTableRecord
  2
GradientColor1ACI
 70
     0
  0
APPID
  5
10E88
330
9
100
AcDbSymbolTableRecord
100
AcDbRegAppTableRecord
  2
GradientColor2ACI
 70
     0
  0
ENDTAB
  0
TABLE
  2
DIMSTYLE
  5
A
330
0
100
AcDbSymbolTable
 70
     2
100
AcDbDimStyleTable
 71
     1
340
1D
  0
DIMSTYLE
105
1D
330
A
100
AcDbSymbolTableRecord
100
AcDbDimStyleTableRecord
  2
STANDARD
 70
     0
 73
     0
 77
     1
271
     0
272
     0
340
1CC
1001
ACAD_DSTYLE_DIMJAG
1070
   388
1040
1.5
1001
ACAD_DSTYLE_DIMTALN
1070
   392
1070
     0
  0
ENDTAB
  0
TABLE
  2
BLOCK_RECORD
  5
1
330
0
100
AcDbSymbolTable
 70
    20
  0
BLOCK_RECORD
  5
18
102
{ACAD_XDICTIONARY
360
6578
102
}
330
1
100
AcDbSymbolTableRecord
100
AcDbBlockTableRecord
  2
*MODEL_SPACE
340
91
  0
BLOCK_RECORD
  5
10752
330
1
100
AcDbSymbolTableRecord
100
AcDbBlockTableRecord
  2
*Paper_Space
340
10753
  0
BLOCK_RECORD
  5
7A47
330
1
100
AcDbSymbolTableRecord
100
AcDbBlockTableRecord
  2
teghoved_lafarge 1-10
340
0
1001
ACAD
1000
DesignCenter Data
1002
{
1070
     1
1070
     4
1002
}
  0
BLOCK_RECORD
  5
7AF0
330
1
100
AcDbSymbolTableRecord
100
AcDbBlockTableRecord
  2
Modelramme A4_1-10
340
0
102
{BLKREFS
331
7B09
102
}
1001
ACAD
1000
DesignCenter Data
1002
{
1070
     1
1070
     4
1002
}
  0
BLOCK_RECORD
  5
C9DA
102
{ACAD_XDICTIONARY
360
C9DB
102
}
330
1
100
AcDbSymbolTableRecord
100
AcDbBlockTableRecord
  2
Vent pil
340
0
102
{BLKREFS
331
EC69
331
EF36
102
}
  0
BLOCK_RECORD
  5
D86E
102
{ACAD_XDICTIONARY
360
10BC5
102
}
330
1
100
AcDbSymbolTableRecord
100
AcDbBlockTableRecord
  2
A$C74004F54
340
0
1001
AcDbDynamicBlockGUID
1000
{530B5938-2395-484C-824E-5ACB6439C30E}
  0
BLOCK_RECORD
  5
EC01
102
{ACAD_XDICTIONARY
360
EC05
102
}
330
1
100
AcDbSymbolTableRecord
100
AcDbBlockTableRecord
  2
A$C6D67221A
340
0
102
{BLKREFS
331
EC09
331
EC0A
331
EC4C
331
EC4D
331
FD9B
331
FD77
102
}
  0
BLOCK_RECORD
  5
F06B
102
{ACAD_XDICTIONARY
360
F072
102
}
330
1
100
AcDbSymbolTableRecord
100
AcDbBlockTableRecord
  2
A$C5D24607F
340
0
  0
BLOCK_RECORD
  5
F495
102
{ACAD_XDICTIONARY
360
10BF4
102
}
330
1
100
AcDbSymbolTableRecord
100
AcDbBlockTableRecord
  2
A$C4CB44FE2
340
0
1001
AcDbDynamicBlockGUID
1000
{38BFFBA9-2E5E-41BA-971A-59B6DF1FA98C}
  0
BLOCK_RECORD
  5
F7FE
102
{ACAD_XDICTIONARY
360
F7FF
102
}
330
1
100
AcDbSymbolTableRecord
100
AcDbBlockTableRecord
  2
Ventilationsstuds
340
0
1001
ACAD
1000
DesignCenter Data
1002
{
1070
     1
1070
     4
1002
}
  0
BLOCK_RECORD
  5
FD4E
102
{ACAD_XDICTIONARY
360
10AF1
102
}
330
1
100
AcDbSymbolTableRecord
100
AcDbBlockTableRecord
  2
A$C28341222
340
0
1001
AcDbDynamicBlockGUID
1000
{543C9EBB-FA31-4B60-805B-5A8409972FD0}
  0
BLOCK_RECORD
  5
FDAC
102
{ACAD_XDICTIONARY
360
FDAD
102
}
330
1
100
AcDbSymbolTableRecord
100
AcDbBlockTableRecord
  2
A$C2E310B88
340
0
  0
BLOCK_RECORD
  5
106FE
330
1
100
AcDbSymbolTableRecord
100
AcDbBlockTableRecord
  2
38x73 lægte
340
0
102
{BLKREFS
331
1070D
331
10E64
102
}
1001
ACAD
1000
DesignCenter Data
1002
{
1070
     1
1070
     4
1002
}
  0
BLOCK_RECORD
  5
1087D
330
1
100
AcDbSymbolTableRecord
100
AcDbBlockTableRecord
  2
_Oblique
340
0
  0
BLOCK_RECORD
  5
10908
330
1
100
AcDbSymbolTableRecord
100
AcDbBlockTableRecord
  2
_ArchTick
340
0
  0
BLOCK_RECORD
  5
10973
330
1
100
AcDbSymbolTableRecord
100
AcDbBlockTableRecord
  2
_Dot
340
0
  0
BLOCK_RECORD
  5
10E57
330
1
100
AcDbSymbolTableRecord
100
AcDbBlockTableRecord
  2
skotrendebræt 1x6
340
0
310
2800000020000000200000000100080000000000000400000000000000000000000000000000000000000000000080000080000000808000800000008000800080800000C0C0C000C0DCC000F0CAA6000020400000206000002080000020A0000020C0000020E00000400000004020000040400000406000004080000040A0
310
000040C0000040E00000600000006020000060400000606000006080000060A0000060C0000060E00000800000008020000080400000806000008080000080A0000080C0000080E00000A0000000A0200000A0400000A0600000A0800000A0A00000A0C00000A0E00000C0000000C0200000C0400000C0600000C0800000C0
310
A00000C0C00000C0E00000E0000000E0200000E0400000E0600000E0800000E0A00000E0C00000E0E00040000000400020004000400040006000400080004000A0004000C0004000E00040200000402020004020400040206000402080004020A0004020C0004020E000404000004040200040404000404060004040800040
310
40A0004040C0004040E00040600000406020004060400040606000406080004060A0004060C0004060E00040800000408020004080400040806000408080004080A0004080C0004080E00040A0000040A0200040A0400040A0600040A0800040A0A00040A0C00040A0E00040C0000040C0200040C0400040C0600040C08000
310
40C0A00040C0C00040C0E00040E0000040E0200040E0400040E0600040E0800040E0A00040E0C00040E0E00080000000800020008000400080006000800080008000A0008000C0008000E00080200000802020008020400080206000802080008020A0008020C0008020E00080400000804020008040400080406000804080
310
008040A0008040C0008040E00080600000806020008060400080606000806080008060A0008060C0008060E00080800000808020008080400080806000808080008080A0008080C0008080E00080A0000080A0200080A0400080A0600080A0800080A0A00080A0C00080A0E00080C0000080C0200080C0400080C0600080C0
310
800080C0A00080C0C00080C0E00080E0000080E0200080E0400080E0600080E0800080E0A00080E0C00080E0E000C0000000C0002000C0004000C0006000C0008000C000A000C000C000C000E000C0200000C0202000C0204000C0206000C0208000C020A000C020C000C020E000C0400000C0402000C0404000C0406000C0
310
408000C040A000C040C000C040E000C0600000C0602000C0604000C0606000C0608000C060A000C060C000C060E000C0800000C0802000C0804000C0806000C0808000C080A000C080C000C080E000C0A00000C0A02000C0A04000C0A06000C0A08000C0A0A000C0A0C000C0A0E000C0C00000C0C02000C0C04000C0C06000
310
C0C08000C0C0A000F0FBFF00A4A0A000808080000000FF0000FF000000FFFF00FF000000FF00FF00FFFF0000FFFFFF0049494949494949494949494949494949494949494949494949494949494949494949494949494949494949494949494949494949494949494949494949494949494949494949494949494949494949
310
49494949494949494949494949494949494949494949494949494949494949494949494949494949494949494949494949494949494949494949494949494949494949494949494949494949494949494949494949494949494949494949494949494949494949494949494949494949494949494949494949494949494949
310
49494949494949494949494949494949494949494949494949494949494949494949494949494949494949494949494949494949494949494949494949494949494949494949494949494949494949494949494949494949494949494949494949494949494949494949494949494949494949494949494949494949494949
310
49494949494949494949494949494949494949494949494949494949494949494949494949494949494949494949FFFFFF4949494949494949494949494949494949494949494949FFFFFFFFFFFFA449FF4949494949494949494949494949494949FFFFFFFFFFFF49A4A4A44949494949FF4949494949494949494949FFFF
310
FFFFFF49494949A4A4A44949494949494949FF4949494949FFFFFFFFFFFF494949494949A4A4A4A4A4A4A4A4A4A4A4A4FFFFFF4949FFFFFFA4A4A4A4A4A4A4A4A4A4A4A4494949494949FFFFFFFFFFFF4949494949FF4949494949494949A4A4A449494949FFFFFFFFFF494949494949494949494949FF49494949A4A4A449
310
FFFFFFFFFFFF4949494949494949494949494949494949FF49A4FFFFFFFFFFFF4949494949494949494949494949494949494949494949FFFFFF494949494949494949494949494949494949494949494949494949494949494949494949494949494949494949494949494949494949494949494949494949494949494949
310
49494949494949494949494949494949494949494949494949494949494949494949494949494949494949494949494949494949494949494949494949494949494949494949494949494949494949494949494949494949494949494949494949494949494949494949494949494949494949494949494949494949494949
310
49494949494949494949494949494949494949494949494949494949494949494949494949494949494949494949494949494949494949494949494949494949494949494949494949494949494949494949494949494949494949494949494949494949494949494949494949494949494949494949494949494949494949
310
4949494949494949494949494949494949494949494949494949494949494949494949494949494949494949494949494949494949494949
  0
BLOCK_RECORD
  5
10E72
330
1
100
AcDbSymbolTableRecord
100
AcDbBlockTableRecord
  2
skotrendeblik
340
0
310
2800000020000000200000000100080000000000000400000000000000000000000000000000000000000000000080000080000000808000800000008000800080800000C0C0C000C0DCC000F0CAA6000020400000206000002080000020A0000020C0000020E00000400000004020000040400000406000004080000040A0
310
000040C0000040E00000600000006020000060400000606000006080000060A0000060C0000060E00000800000008020000080400000806000008080000080A0000080C0000080E00000A0000000A0200000A0400000A0600000A0800000A0A00000A0C00000A0E00000C0000000C0200000C0400000C0600000C0800000C0
310
A00000C0C00000C0E00000E0000000E0200000E0400000E0600000E0800000E0A00000E0C00000E0E00040000000400020004000400040006000400080004000A0004000C0004000E00040200000402020004020400040206000402080004020A0004020C0004020E000404000004040200040404000404060004040800040
310
40A0004040C0004040E00040600000406020004060400040606000406080004060A0004060C0004060E00040800000408020004080400040806000408080004080A0004080C0004080E00040A0000040A0200040A0400040A0600040A0800040A0A00040A0C00040A0E00040C0000040C0200040C0400040C0600040C08000
310
40C0A00040C0C00040C0E00040E0000040E0200040E0400040E0600040E0800040E0A00040E0C00040E0E00080000000800020008000400080006000800080008000A0008000C0008000E00080200000802020008020400080206000802080008020A0008020C0008020E00080400000804020008040400080406000804080
310
008040A0008040C0008040E00080600000806020008060400080606000806080008060A0008060C0008060E00080800000808020008080400080806000808080008080A0008080C0008080E00080A0000080A0200080A0400080A0600080A0800080A0A00080A0C00080A0E00080C0000080C0200080C0400080C0600080C0
310
800080C0A00080C0C00080C0E00080E0000080E0200080E0400080E0600080E0800080E0A00080E0C00080E0E000C0000000C0002000C0004000C0006000C0008000C000A000C000C000C000E000C0200000C0202000C0204000C0206000C0208000C020A000C020C000C020E000C0400000C0402000C0404000C0406000C0
310
408000C040A000C040C000C040E000C0600000C0602000C0604000C0606000C0608000C060A000C060C000C060E000C0800000C0802000C0804000C0806000C0808000C080A000C080C000C080E000C0A00000C0A02000C0A04000C0A06000C0A08000C0A0A000C0A0C000C0A0E000C0C00000C0C02000C0C04000C0C06000
310
C0C08000C0C0A000F0FBFF00A4A0A000808080000000FF0000FF000000FFFF00FF000000FF00FF00FFFF0000FFFFFF0049494949494949494949494949494949494949494949494949494949494949494949494949494949494949494949494949494949494949494949494949494949494949494949494949494949494949
310
49494949494949494949494949494949494949494949494949494949494949494949494949494949494949494949494949494949494949494949494949494949494949494949494949494949494949494949494949494949494949494949494949494949494949494949494949494949494949494949494949494949494949
310
49494949494949494949494949494949494949494949494949494949494949494949494949494949494949494949494949494949494949494949494949494949494949494949494949494949494949494949494949494949494949494949494949494949494949494949494949494949494949494949494949494949494949
310
494949494949494949494949494949494949494949494949494949494949494949494949494949494949494949494949494949494949494949494949494949494949494949494949494949494949494949494949494949494949494949494949494949494949494949494949494949494949494949494949494949494949FC
310
FCFCFCFCFCFCFCFCFC49494949494949494949494949494949FCFCFCFCFCFC49494949494949494949FCFCFCFCFCFC494949494949494949FCFCFC494949494949494949494949494949494949FCFCFC4949494949FCFCFC494949494949494949494949494949494949494949494949FCFCFC494949494949494949494949
310
49494949494949494949494949494949494949494949494949494949494949494949494949494949494949494949494949494949494949494949494949494949494949494949494949494949494949494949494949494949494949494949494949494949494949494949494949494949494949494949494949494949494949
310
49494949494949494949494949494949494949494949494949494949494949494949494949494949494949494949494949494949494949494949494949494949494949494949494949494949494949494949494949494949494949494949494949494949494949494949494949494949494949494949494949494949494949
310
49494949494949494949494949494949494949494949494949494949494949494949494949494949494949494949494949494949494949494949494949494949494949494949494949494949494949494949494949494949494949494949494949494949494949494949494949494949494949494949494949494949494949
310
4949494949494949494949494949494949494949494949494949494949494949494949494949494949494949494949494949494949494949
102
{BLKREFS
331
10E7B
102
}
  0
BLOCK_RECORD
  5
10F91
330
1
100
AcDbSymbolTableRecord
100
AcDbBlockTableRecord
  2
B&C dobbltvinget
340
0
310
2800000020000000200000000100080000000000000400000000000000000000000000000000000000000000000080000080000000808000800000008000800080800000C0C0C000C0DCC000F0CAA6000020400000206000002080000020A0000020C0000020E00000400000004020000040400000406000004080000040A0
310
000040C0000040E00000600000006020000060400000606000006080000060A0000060C0000060E00000800000008020000080400000806000008080000080A0000080C0000080E00000A0000000A0200000A0400000A0600000A0800000A0A00000A0C00000A0E00000C0000000C0200000C0400000C0600000C0800000C0
310
A00000C0C00000C0E00000E0000000E0200000E0400000E0600000E0800000E0A00000E0C00000E0E00040000000400020004000400040006000400080004000A0004000C0004000E00040200000402020004020400040206000402080004020A0004020C0004020E000404000004040200040404000404060004040800040
310
40A0004040C0004040E00040600000406020004060400040606000406080004060A0004060C0004060E00040800000408020004080400040806000408080004080A0004080C0004080E00040A0000040A0200040A0400040A0600040A0800040A0A00040A0C00040A0E00040C0000040C0200040C0400040C0600040C08000
310
40C0A00040C0C00040C0E00040E0000040E0200040E0400040E0600040E0800040E0A00040E0C00040E0E00080000000800020008000400080006000800080008000A0008000C0008000E00080200000802020008020400080206000802080008020A0008020C0008020E00080400000804020008040400080406000804080
310
008040A0008040C0008040E00080600000806020008060400080606000806080008060A0008060C0008060E00080800000808020008080400080806000808080008080A0008080C0008080E00080A0000080A0200080A0400080A0600080A0800080A0A00080A0C00080A0E00080C0000080C0200080C0400080C0600080C0
310
800080C0A00080C0C00080C0E00080E0000080E0200080E0400080E0600080E0800080E0A00080E0C00080E0E000C0000000C0002000C0004000C0006000C0008000C000A000C000C000C000E000C0200000C0202000C0204000C0206000C0208000C020A000C020C000C020E000C0400000C0402000C0404000C0406000C0
310
408000C040A000C040C000C040E000C0600000C0602000C0604000C0606000C0608000C060A000C060C000C060E000C0800000C0802000C0804000C0806000C0808000C080A000C080C000C080E000C0A00000C0A02000C0A04000C0A06000C0A08000C0A0A000C0A0C000C0A0E000C0C00000C0C02000C0C04000C0C06000
310
C0C08000C0C0A000F0FBFF00A4A0A000808080000000FF0000FF000000FFFF00FF000000FF00FF00FFFF0000FFFFFF0049494949494949494949494949494949494949494949494949494949494949494949494949494949494949494949494949494949494949494949494949494949494949494949494949494949494949
310
49494949494949494949494949494949494949494949494949494949494949494949494949494949494949494949494949494949494949494949494949494949494949494949494949494949494949494949494949494949494949494949494949494949494949494949494949494949494949494949494949494949494949
310
49494949494949494949494949494949494949494949494949494949494949494949494949494949494949494949494949494949494949494949494949494949494949494949494949494949494949494949494949494949494949494949494949494949494949494949494949494949494949494949494949494949494949
310
49494949494949494949494949494949494949494949494949494949494949494949494949494949494949494949494949494949494949494949494949494949494949494949494949494949494949494949494949494949494949494949494949494949494949494949494949494949494949494949491D1D1D1D1D1D1D1D
310
49494949491D1D1D1D1D1DA44949494949494949491D1D1D1D1D1D1D1D1D1DA41D4949491D1D1D1D1D1D1D1D1DA4494949494949491D1D1D1D4949494949491D1D1D1D1D1D1D4949494949491D1D1D1D1D1D1D49494949494949494949494949491D1D1D1D1D494949494949491D1D1D1D1D49494949494949494949494949
310
49494949494949494949494949494949494949494949494949494949494949494949494949494949494949494949494949494949494949494949494949494949494949494949494949494949494949494949494949494949494949494949494949494949494949494949494949494949494949494949494949494949494949
310
49494949494949494949494949494949494949494949494949494949494949494949494949494949494949494949494949494949494949494949494949494949494949494949494949494949494949494949494949494949494949494949494949494949494949494949494949494949494949494949494949494949494949
310
49494949494949494949494949494949494949494949494949494949494949494949494949494949494949494949494949494949494949494949494949494949494949494949494949494949494949494949494949494949494949494949494949494949494949494949494949494949494949494949494949494949494949
310
4949494949494949494949494949494949494949494949494949494949494949494949494949494949494949494949494949494949494949
102
{BLKREFS
331
10FDA
331
1111F
102
}
  0
BLOCK_RECORD
  5
110A5
330
1
100
AcDbSymbolTableRecord
100
AcDbBlockTableRecord
  2
B&C dobbltvinget2
340
0
310
2800000020000000200000000100080000000000000400000000000000000000000000000000000000000000000080000080000000808000800000008000800080800000C0C0C000C0DCC000F0CAA6000020400000206000002080000020A0000020C0000020E00000400000004020000040400000406000004080000040A0
310
000040C0000040E00000600000006020000060400000606000006080000060A0000060C0000060E00000800000008020000080400000806000008080000080A0000080C0000080E00000A0000000A0200000A0400000A0600000A0800000A0A00000A0C00000A0E00000C0000000C0200000C0400000C0600000C0800000C0
310
A00000C0C00000C0E00000E0000000E0200000E0400000E0600000E0800000E0A00000E0C00000E0E00040000000400020004000400040006000400080004000A0004000C0004000E00040200000402020004020400040206000402080004020A0004020C0004020E000404000004040200040404000404060004040800040
310
40A0004040C0004040E00040600000406020004060400040606000406080004060A0004060C0004060E00040800000408020004080400040806000408080004080A0004080C0004080E00040A0000040A0200040A0400040A0600040A0800040A0A00040A0C00040A0E00040C0000040C0200040C0400040C0600040C08000
310
40C0A00040C0C00040C0E00040E0000040E0200040E0400040E0600040E0800040E0A00040E0C00040E0E00080000000800020008000400080006000800080008000A0008000C0008000E00080200000802020008020400080206000802080008020A0008020C0008020E00080400000804020008040400080406000804080
310
008040A0008040C0008040E00080600000806020008060400080606000806080008060A0008060C0008060E00080800000808020008080400080806000808080008080A0008080C0008080E00080A0000080A0200080A0400080A0600080A0800080A0A00080A0C00080A0E00080C0000080C0200080C0400080C0600080C0
310
800080C0A00080C0C00080C0E00080E0000080E0200080E0400080E0600080E0800080E0A00080E0C00080E0E000C0000000C0002000C0004000C0006000C0008000C000A000C000C000C000E000C0200000C0202000C0204000C0206000C0208000C020A000C020C000C020E000C0400000C0402000C0404000C0406000C0
310
408000C040A000C040C000C040E000C0600000C0602000C0604000C0606000C0608000C060A000C060C000C060E000C0800000C0802000C0804000C0806000C0808000C080A000C080C000C080E000C0A00000C0A02000C0A04000C0A06000C0A08000C0A0A000C0A0C000C0A0E000C0C00000C0C02000C0C04000C0C06000
310
C0C08000C0C0A000F0FBFF00A4A0A000808080000000FF0000FF000000FFFF00FF000000FF00FF00FFFF0000FFFFFF0049494949494949494949494949494949494949494949494949494949494949494949494949494949494949494949494949494949494949494949494949494949494949494949494949494949494949
310
49494949494949494949494949494949494949494949494949494949494949494949494949494949494949494949494949494949494949494949494949494949494949494949494949494949494949494949494949494949494949494949494949494949494949494949494949494949494949494949494949494949494949
310
49494949494949494949494949494949494949494949494949494949494949494949494949494949494949494949494949494949494949494949494949494949494949494949494949494949494949494949494949494949494949494949494949494949494949494949494949494949494949491D49494949494949494949
310
4949494949494949494949494949494949494949491D1D49494949494949494949494949494949494949494949494949494949491DA4A41DA4494949494949494949494949494949494949494949494949494949491D1DA41DA449494949491D1D1D1D1D1D1D49494949494949494949494949494949491D1D1D1D4949491D
310
1D1D1D1D1DA4A41D1D49494949494949494949494949494949A41DA41D491D1D1D1D4949491D1DA4491D49494949494949494949494949494949491DA41D1D1D1D4949494949491D1DA41DA4494949494949494949494949494949491D1D1D1D4949494949494949491D1D1D1DA44949494949494949494949494949494949
310
4949494949494949494949491D491D1D1D491D49494949494949494949494949494949494949494949494949491DA41D1D1D1D1D49494949494949494949494949494949494949494949494949491D1D1D1D1D49494949494949494949494949494949494949494949494949494949491D1D49494949494949494949494949
310
49494949494949494949494949494949494949494949494949494949494949494949494949494949494949494949494949494949494949494949494949494949494949494949494949494949494949494949494949494949494949494949494949494949494949494949494949494949494949494949494949494949494949
310
49494949494949494949494949494949494949494949494949494949494949494949494949494949494949494949494949494949494949494949494949494949494949494949494949494949494949494949494949494949494949494949494949494949494949494949494949494949494949494949494949494949494949
310
4949494949494949494949494949494949494949494949494949494949494949494949494949494949494949494949494949494949494949
102
{BLKREFS
331
110E6
331
11120
102
}
  0
BLOCK_RECORD
  5
110EA
330
1
100
AcDbSymbolTableRecord
100
AcDbBlockTableRecord
  2
B&C dobbltvinget3
340
0
310
2800000020000000200000000100080000000000000400000000000000000000000000000000000000000000000080000080000000808000800000008000800080800000C0C0C000C0DCC000F0CAA6000020400000206000002080000020A0000020C0000020E00000400000004020000040400000406000004080000040A0
310
000040C0000040E00000600000006020000060400000606000006080000060A0000060C0000060E00000800000008020000080400000806000008080000080A0000080C0000080E00000A0000000A0200000A0400000A0600000A0800000A0A00000A0C00000A0E00000C0000000C0200000C0400000C0600000C0800000C0
310
A00000C0C00000C0E00000E0000000E0200000E0400000E0600000E0800000E0A00000E0C00000E0E00040000000400020004000400040006000400080004000A0004000C0004000E00040200000402020004020400040206000402080004020A0004020C0004020E000404000004040200040404000404060004040800040
310
40A0004040C0004040E00040600000406020004060400040606000406080004060A0004060C0004060E00040800000408020004080400040806000408080004080A0004080C0004080E00040A0000040A0200040A0400040A0600040A0800040A0A00040A0C00040A0E00040C0000040C0200040C0400040C0600040C08000
310
40C0A00040C0C00040C0E00040E0000040E0200040E0400040E0600040E0800040E0A00040E0C00040E0E00080000000800020008000400080006000800080008000A0008000C0008000E00080200000802020008020400080206000802080008020A0008020C0008020E00080400000804020008040400080406000804080
310
008040A0008040C0008040E00080600000806020008060400080606000806080008060A0008060C0008060E00080800000808020008080400080806000808080008080A0008080C0008080E00080A0000080A0200080A0400080A0600080A0800080A0A00080A0C00080A0E00080C0000080C0200080C0400080C0600080C0
310
800080C0A00080C0C00080C0E00080E0000080E0200080E0400080E0600080E0800080E0A00080E0C00080E0E000C0000000C0002000C0004000C0006000C0008000C000A000C000C000C000E000C0200000C0202000C0204000C0206000C0208000C020A000C020C000C020E000C0400000C0402000C0404000C0406000C0
310
408000C040A000C040C000C040E000C0600000C0602000C0604000C0606000C0608000C060A000C060C000C060E000C0800000C0802000C0804000C0806000C0808000C080A000C080C000C080E000C0A00000C0A02000C0A04000C0A06000C0A08000C0A0A000C0A0C000C0A0E000C0C00000C0C02000C0C04000C0C06000
310
C0C08000C0C0A000F0FBFF00A4A0A000808080000000FF0000FF000000FFFF00FF000000FF00FF00FFFF0000FFFFFF0049494949494949494949494949494949494949494949494949494949494949494949494949494949494949494949494949494949494949494949494949494949494949494949494949494949494949
310
49494949494949494949494949494949494949494949494949494949494949494949494949494949494949494949494949494949494949494949494949494949494949494949494949494949494949494949494949494949494949494949494949494949494949494949494949494949494949494949494949494949494949
310
49494949494949494949494949494949494949494949494949494949494949494949494949494949494949494949494949494949494949494949494949494949494949494949494949494949494949494949494949494949494949494949494949494949494949494949494949494949494949494949494949491D1D1D1D1D
310
49A4494949494949494949494949494949494949491DA449491D1D1DA449A4A41D1D1DA449494949494949494949494949494949491D1D1D1D4949A41D1D1D1D1DA4A41D1D1D49494949494949494949494949491D491D1D1D1D491D1D494949491D1DA4A4A41D1D494949494949494949494949491D491D1D1D1D49494949
310
494949491D1DA4A4A41D1D4949494949494949494949494949494949494949494949494949491D1DA4A4491D494949494949494949494949494949494949494949494949494949491D1D49A41D49494949494949494949494949494949494949494949494949494949491D49A41D4949494949494949494949494949494949
310
4949494949494949494949491D49A41D49494949494949494949494949494949494949494949494949494949491DA4491D1D1D1D49494949494949494949494949494949494949494949494949491D1DA449A4A4494949494949494949494949494949494949494949494949494949491D1D1D1D4949494949494949494949
310
49494949494949494949494949494949494949494949494949494949494949494949494949494949494949494949494949494949494949494949494949494949494949494949494949494949494949494949494949494949494949494949494949494949494949494949494949494949494949494949494949494949494949
310
49494949494949494949494949494949494949494949494949494949494949494949494949494949494949494949494949494949494949494949494949494949494949494949494949494949494949494949494949494949494949494949494949494949494949494949494949494949494949494949494949494949494949
310
4949494949494949494949494949494949494949494949494949494949494949494949494949494949494949494949494949494949494949
102
{BLKREFS
331
1111C
331
11121
102
}
  0
ENDTAB
  0
ENDSEC
  0
SECTION
  2
BLOCKS
  0
BLOCK
  5
19
330
18
100
AcDbEntity
  8
0
100
AcDbBlockBegin
  2
*MODEL_SPACE
 70
     0
 10
0.0
 20
0.0
 30
0.0
  3
*MODEL_SPACE
  1

  0
ENDBLK
  5
1A
330
18
100
AcDbEntity
  8
0
100
AcDbBlockEnd
  0
BLOCK
  5
10754
330
10752
100
AcDbEntity
 67
     1
  8
0
100
AcDbBlockBegin
  2
*Paper_Space
 70
     0
 10
0.0
 20
0.0
 30
0.0
  3
*Paper_Space
  1

  0
ENDBLK
  5
10755
330
10752
100
AcDbEntity
 67
     1
  8
0
100
AcDbBlockEnd
  0
BLOCK
  5
7A48
330
7A47
100
AcDbEntity
  8
0
100
AcDbBlockBegin
  2
teghoved_lafarge 1-10
 70
     2
 10
0.0
 20
0.0
 30
0.0
  3
teghoved_lafarge 1-10
  1

  0
ATTDEF
  5
F6AF
330
7A47
100
AcDbEntity
  8
0
100
AcDbText
 10
-845.8406354766022
 20
172.0609631166576
 30
0.0
 40
25.0
  1
XXX
  7
ARIAL-F
 11
-845.8406354766022
 21
197.0609631166576
 31
0.0
100
AcDbAttributeDefinition
  3
Emne
  2
XX
 70
     0
 74
     3
  0
ATTDEF
  5
F6B0
330
7A47
100
AcDbEntity
  8
0
100
AcDbText
 10
-845.8406354766022
 20
111.1877027209393
 30
0.0
 40
20.0
  1
1.2.2005
  7
ARIAL-F
 11
-845.8406354766022
 21
131.1877027209393
 31
0.0
100
AcDbAttributeDefinition
  3
Dato
  2
xx.xx.xxxx
 70
     0
 74
     3
  0
ATTDEF
  5
F6B1
330
7A47
100
AcDbEntity
  8
0
100
AcDbText
 10
-548.3912025596683
 20
111.1877027209393
 30
0.0
 40
20.0
  1
1:10
  7
ARIAL-F
 11
-548.3912025596683
 21
131.1877027209393
 31
0.0
100
AcDbAttributeDefinition
  3
Målestok
  2
xxx
 70
     0
 74
     3
  0
ATTDEF
  5
F6B2
330
7A47
100
AcDbEntity
  8
0
100
AcDbText
 10
-272.5264232319196
 20
111.1877027209393
 30
0.0
 40
20.0
  1
x.X-x-xx
  7
ARIAL-F
 11
-272.5264232319196
 21
131.1877027209393
 31
0.0
100
AcDbAttributeDefinition
  3
Tegningsnr.
  2
x.X-x-xx
 70
     0
 74
     3
  0
MTEXT
  5
F6B3
330
7A47
100
AcDbEntity
  8
0
100
AcDbMText
 10
-1393.101346678275
 20
138.6191176609286
 30
0.0
 40
19.0
 41
309.2430352705569
 71
     1
 72
     5
  1
{\fArial|b1|i0|c0|p34;\H2x;ROOFING}
  7
ARIAL
 73
     1
 44
1.0
  0
LINE
  5
F6B4
330
7A47
100
AcDbEntity
  8
0
100
AcDbLine
 10
-1519.11153929241
 20
151.8570000313047
 30
0.0
 11
-1030.981131074913
 21
151.8570000313047
 31
0.0
  0
LINE
  5
F6B5
102
{ACAD_REACTORS
330
F6BE
102
}
330
7A47
100
AcDbEntity
  8
0
100
AcDbLine
 10
-1542.326796441984
 20
128.6861388754337
 30
0.0
 11
-1525.559078237361
 21
166.8271276725786
 31
0.0
  0
LINE
  5
F6B6
102
{ACAD_REACTORS
330
F6BE
102
}
330
7A47
100
AcDbEntity
  8
0
100
AcDbLine
 10
-1542.326796441984
 20
128.6861388754337
 30
0.0
 11
-1485.44697213951
 21
128.6861388754332
 31
0.0
  0
LINE
  5
F6B7
102
{ACAD_REACTORS
330
F6BE
102
}
330
7A47
100
AcDbEntity
  8
0
100
AcDbLine
 10
-1498.058105416629
 20
100.0000000000004
 30
0.0
 11
-1485.44697213951
 21
128.6861388754332
 31
0.0
  0
LINE
  5
F6B8
102
{ACAD_REACTORS
330
F6BE
102
}
330
7A47
100
AcDbEntity
  8
0
100
AcDbLine
 10
-1630.0
 20
100.0
 30
0.0
 11
-1498.058105416629
 21
100.0000000000004
 31
0.0
  0
LINE
  5
F6B9
102
{ACAD_REACTORS
330
F6BE
102
}
330
7A47
100
AcDbEntity
  8
0
100
AcDbLine
 10
-1630.0
 20
100.0
 30
0.0
 11
-1542.562781359406
 21
298.8906263766476
 31
0.0
  0
LINE
  5
F6BA
102
{ACAD_REACTORS
330
F6BE
102
}
330
7A47
100
AcDbEntity
  8
0
100
AcDbLine
 10
-1542.562781359406
 20
298.8906263766476
 30
0.0
 11
-1467.500711078509
 21
298.890626376648
 31
0.0
  0
LINE
  5
F6BB
102
{ACAD_REACTORS
330
F6BE
102
}
330
7A47
100
AcDbEntity
  8
0
100
AcDbLine
 10
-1497.767447107363
 20
230.0438563084094
 30
0.0
 11
-1467.500711078509
 21
298.890626376648
 31
0.0
  0
LINE
  5
F6BC
102
{ACAD_REACTORS
330
F6BE
102
}
330
7A47
100
AcDbEntity
  8
0
100
AcDbLine
 10
-1525.559078237361
 20
230.0438563084103
 30
0.0
 11
-1497.767447107363
 21
230.0438563084094
 31
0.0
  0
LINE
  5
F6BD
102
{ACAD_REACTORS
330
F6BE
102
}
330
7A47
100
AcDbEntity
  8
0
100
AcDbLine
 10
-1525.559078237361
 20
166.8271276725791
 30
0.0
 11
-1525.559078237361
 21
230.0438563084103
 31
0.0
  0
HATCH
  5
F6BE
330
7A47
100
AcDbEntity
  8
0
100
AcDbHatch
 10
0.0
 20
0.0
 30
0.0
210
0.0
220
0.0
230
1.0
  2
SOLID
 70
     1
 71
     1
 91
        1
 92
        7
 72
     0
 73
     1
 93
        9
 10
-1525.559078237361
 20
166.8271276725792
 10
-1525.559078237361
 20
230.0438563084103
 10
-1497.767447107364
 20
230.0438563084094
 10
-1467.500711078509
 20
298.8906263766481
 10
-1542.562781359406
 20
298.8906263766476
 10
-1630.0
 20
100.0
 10
-1498.05810541663
 20
100.0000000000005
 10
-1485.44697213951
 20
128.6861388754332
 10
-1542.326796441984
 20
128.6861388754337
 97
        9
330
F6BD
330
F6BC
330
F6BB
330
F6BA
330
F6B9
330
F6B8
330
F6B7
330
F6B6
330
F6B5
 75
     0
 76
     1
 47
0.9915722362735602
 98
        1
 10
-1554.194914759496
 20
158.3014002979016
450
        0
451
        0
460
0.0
461
0.0
452
        0
462
0.0
453
        0
470

  0
LINE
  5
F6BF
102
{ACAD_REACTORS
330
F70A
102
}
330
7A47
100
AcDbEntity
  8
0
100
AcDbLine
 10
-1033.167167217448
 20
193.0438563084101
 30
0.0
 11
-1033.167167217448
 21
203.0438563084101
 31
0.0
  0
LINE
  5
F6C0
102
{ACAD_REACTORS
330
F70A
102
}
330
7A47
100
AcDbEntity
  8
0
100
AcDbLine
 10
-1061.167167217448
 20
193.043856308411
 30
0.0
 11
-1033.167167217448
 21
193.0438563084101
 31
0.0
  0
LINE
  5
F6C1
102
{ACAD_REACTORS
330
F70A
102
}
330
7A47
100
AcDbEntity
  8
0
100
AcDbLine
 10
-1061.167167217448
 20
182.0438563084101
 30
0.0
 11
-1061.167167217448
 21
193.043856308411
 31
0.0
  0
LINE
  5
F6C2
102
{ACAD_REACTORS
330
F70A
102
}
330
7A47
100
AcDbEntity
  8
0
100
AcDbLine
 10
-1061.167167217448
 20
182.0438563084101
 30
0.0
 11
-1033.167167217448
 21
182.0438563084115
 31
0.0
  0
LINE
  5
F6C3
102
{ACAD_REACTORS
330
F70A
102
}
330
7A47
100
AcDbEntity
  8
0
100
AcDbLine
 10
-1033.167167217448
 20
182.043856308411
 30
0.0
 11
-1033.167167217448
 21
173.043856308411
 31
0.0
  0
LINE
  5
F6C4
102
{ACAD_REACTORS
330
F70A
102
}
330
7A47
100
AcDbEntity
  8
0
100
AcDbLine
 10
-1086.167167217448
 20
173.043856308411
 30
0.0
 11
-1033.167167217448
 21
173.043856308411
 31
0.0
  0
LINE
  5
F6C5
102
{ACAD_REACTORS
330
F70A
102
}
330
7A47
100
AcDbEntity
  8
0
100
AcDbLine
 10
-1086.167167217448
 20
173.0438563084101
 30
0.0
 11
-1086.167167217448
 21
223.0438563084097
 31
0.0
  0
LINE
  5
F6C6
102
{ACAD_REACTORS
330
F70A
102
}
330
7A47
100
AcDbEntity
  8
0
100
AcDbLine
 10
-1086.167167217448
 20
223.0438563084097
 30
0.0
 11
-1033.167167217448
 21
223.0438563084097
 31
0.0
  0
LINE
  5
F6C7
102
{ACAD_REACTORS
330
F70A
102
}
330
7A47
100
AcDbEntity
  8
0
100
AcDbLine
 10
-1033.167167217448
 20
214.0438563084097
 30
0.0
 11
-1033.167167217448
 21
223.0438563084097
 31
0.0
  0
LINE
  5
F6C8
102
{ACAD_REACTORS
330
F70A
102
}
330
7A47
100
AcDbEntity
  8
0
100
AcDbLine
 10
-1061.167167217448
 20
214.0438563084097
 30
0.0
 11
-1033.167167217448
 21
214.0438563084092
 31
0.0
  0
LINE
  5
F6C9
102
{ACAD_REACTORS
330
F70A
102
}
330
7A47
100
AcDbEntity
  8
0
100
AcDbLine
 10
-1061.167167217448
 20
203.0438563084101
 30
0.0
 11
-1061.167167217448
 21
214.0438563084092
 31
0.0
  0
LINE
  5
F6CA
102
{ACAD_REACTORS
330
F70A
102
}
330
7A47
100
AcDbEntity
  8
0
100
AcDbLine
 10
-1061.167167217448
 20
203.0438563084101
 30
0.0
 11
-1033.167167217448
 21
203.0438563084101
 31
0.0
  0
ARC
  5
F6CB
102
{ACAD_REACTORS
330
F70A
102
}
330
7A47
100
AcDbEntity
  8
0
100
AcDbCircle
 10
-1127.515218794589
 20
198.6226619167357
 30
0.0
 40
15.61446870881694
100
AcDbArc
 50
118.2330301944993
 51
290.6556887732245
  0
LINE
  5
F6CC
102
{ACAD_REACTORS
330
F70A
102
}
330
7A47
100
AcDbEntity
  8
0
100
AcDbLine
 10
-1122.007194855042
 20
184.0119362215452
 30
0.0
 11
-1122.007194855042
 21
192.6783506692202
 31
0.0
  0
LINE
  5
F6CD
102
{ACAD_REACTORS
330
F70A
102
}
330
7A47
100
AcDbEntity
  8
0
100
AcDbLine
 10
-1122.007194855042
 20
192.6783506692202
 30
0.0
 11
-1127.246038806351
 21
192.6783506692206
 31
0.0
  0
LINE
  5
F6CE
102
{ACAD_REACTORS
330
F70A
102
}
330
7A47
100
AcDbEntity
  8
0
100
AcDbLine
 10
-1127.246038806351
 20
192.6783506692206
 30
0.0
 11
-1127.246038806351
 21
202.4914853532275
 31
0.0
  0
LINE
  5
F6CF
102
{ACAD_REACTORS
330
F70A
102
}
330
7A47
100
AcDbEntity
  8
0
100
AcDbLine
 10
-1105.401837835527
 20
202.491485353228
 30
0.0
 11
-1127.246038806351
 21
202.4914853532275
 31
0.0
  0
LINE
  5
F6D0
102
{ACAD_REACTORS
330
F70A
102
}
330
7A47
100
AcDbEntity
  8
0
100
AcDbLine
 10
-1105.401837835527
 20
173.0438563084101
 30
0.0
 11
-1105.401837835527
 21
202.491485353228
 31
0.0
  0
LINE
  5
F6D1
102
{ACAD_REACTORS
330
F70A
102
}
330
7A47
100
AcDbEntity
  8
0
100
AcDbLine
 10
-1105.401837835527
 20
173.043856308411
 30
0.0
 11
-1141.818131336825
 21
173.043856308411
 31
0.0
  0
ARC
  5
F6D2
102
{ACAD_REACTORS
330
F70A
102
}
330
7A47
100
AcDbEntity
  8
0
100
AcDbCircle
 10
-1141.818131336825
 20
198.043856308411
 30
0.0
 40
25.0
100
AcDbArc
 50
90.0
 51
270.0
  0
LINE
  5
F6D3
102
{ACAD_REACTORS
330
F70A
102
}
330
7A47
100
AcDbEntity
  8
0
100
AcDbLine
 10
-1105.401837835527
 20
223.0438563084097
 30
0.0
 11
-1141.818131336825
 21
223.0438563084097
 31
0.0
  0
LINE
  5
F6D4
102
{ACAD_REACTORS
330
F70A
102
}
330
7A47
100
AcDbEntity
  8
0
100
AcDbLine
 10
-1105.401837835527
 20
210.9179973212592
 30
0.0
 11
-1105.401837835527
 21
223.0438563084097
 31
0.0
  0
ARC
  5
F6D5
102
{ACAD_REACTORS
330
F70A
102
}
330
7A47
100
AcDbEntity
  8
0
100
AcDbCircle
 10
-1121.826452439677
 20
177.8464183273379
 30
0.0
 40
36.92556434297074
100
AcDbArc
 50
63.58924235772384
 51
110.7382706481709
  0
LINE
  5
F6D6
102
{ACAD_REACTORS
330
F70A
102
}
330
7A47
100
AcDbEntity
  8
0
100
AcDbLine
 10
-1215.62419219443
 20
202.1578823353041
 30
0.0
 11
-1205.481115653641
 21
202.1578823353036
 31
0.0
  0
ARC
  5
F6D7
102
{ACAD_REACTORS
330
F70A
102
}
330
7A47
100
AcDbEntity
  8
0
100
AcDbCircle
 10
-1205.481115653641
 20
207.6008693218566
 30
0.0
 40
5.442986986552568
100
AcDbArc
 50
270.0
 51
90.0
  0
LINE
  5
F6D8
102
{ACAD_REACTORS
330
F70A
102
}
330
7A47
100
AcDbEntity
  8
0
100
AcDbLine
 10
-1215.62419219443
 20
213.0438563084096
 30
0.0
 11
-1205.481115653641
 21
213.0438563084092
 31
0.0
  0
LINE
  5
F6D9
102
{ACAD_REACTORS
330
F70A
102
}
330
7A47
100
AcDbEntity
  8
0
100
AcDbLine
 10
-1215.62419219443
 20
202.1578823353036
 30
0.0
 11
-1215.62419219443
 21
213.0438563084092
 31
0.0
  0
LINE
  5
F6DA
102
{ACAD_REACTORS
330
F70A
102
}
330
7A47
100
AcDbEntity
  8
0
100
AcDbLine
 10
-1215.62419219443
 20
173.0438563084101
 30
0.0
 11
-1215.62419219443
 21
192.157882335304
 31
0.0
  0
LINE
  5
F6DB
102
{ACAD_REACTORS
330
F70A
102
}
330
7A47
100
AcDbEntity
  8
0
100
AcDbLine
 10
-1240.62419219443
 20
173.0438563084101
 30
0.0
 11
-1215.62419219443
 21
173.0438563084096
 31
0.0
  0
LINE
  5
F6DC
102
{ACAD_REACTORS
330
F70A
102
}
330
7A47
100
AcDbEntity
  8
0
100
AcDbLine
 10
-1240.62419219443
 20
173.0438563084101
 30
0.0
 11
-1240.62419219443
 21
223.0438563084097
 31
0.0
  0
LINE
  5
F6DD
102
{ACAD_REACTORS
330
F70A
102
}
330
7A47
100
AcDbEntity
  8
0
100
AcDbLine
 10
-1240.62419219443
 20
223.0438563084097
 30
0.0
 11
-1190.969000953884
 21
223.0438563084097
 31
0.0
  0
ARC
  5
F6DE
102
{ACAD_REACTORS
330
F70A
102
}
330
7A47
100
AcDbEntity
  8
0
100
AcDbCircle
 10
-1190.969000953884
 20
210.1008693218566
 30
0.0
 40
12.94298698655302
100
AcDbArc
 50
272.1922448110098
 51
90.0
  0
ARC
  5
F6DF
102
{ACAD_REACTORS
330
F70A
102
}
330
7A47
100
AcDbEntity
  8
0
100
AcDbCircle
 10
-1200.479869491198
 20
174.9732844418179
 30
0.0
 40
24.34535340817272
100
AcDbArc
 50
355.45440397584
 51
65.73225225477391
  0
LINE
  5
F6E0
102
{ACAD_REACTORS
330
F70A
102
}
330
7A47
100
AcDbEntity
  8
0
100
AcDbLine
 10
-1199.571017262543
 20
173.0438563084096
 30
0.0
 11
-1176.211092438234
 21
173.0438563084101
 31
0.0
  0
LINE
  5
F6E1
102
{ACAD_REACTORS
330
F70A
102
}
330
7A47
100
AcDbEntity
  8
0
100
AcDbLine
 10
-1199.571017262543
 20
173.0438563084096
 30
0.0
 11
-1199.571017262543
 21
179.5120312930887
 31
0.0
  0
ARC
  5
F6E2
102
{ACAD_REACTORS
330
F70A
102
}
330
7A47
100
AcDbEntity
  8
0
100
AcDbCircle
 10
-1211.858373532516
 20
180.0607863283051
 30
0.0
 40
12.29960390394408
100
AcDbArc
 50
357.4428617316141
 51
79.58856171121232
  0
LINE
  5
F6E3
102
{ACAD_REACTORS
330
F70A
102
}
330
7A47
100
AcDbEntity
  8
0
100
AcDbLine
 10
-1215.62419219443
 20
192.157882335304
 30
0.0
 11
-1209.635644491142
 21
192.157882335304
 31
0.0
  0
LINE
  5
F6E4
102
{ACAD_REACTORS
330
F70A
102
}
330
7A47
100
AcDbEntity
  8
0
100
AcDbLine
 10
-1294.707622861026
 20
195.1678827347825
 30
0.0
 11
-1278.856517118908
 21
195.1678827347825
 31
0.0
  0
LINE
  5
F6E5
102
{ACAD_REACTORS
330
F70A
102
}
330
7A47
100
AcDbEntity
  8
0
100
AcDbLine
 10
-1278.856517118908
 20
195.1678827347825
 30
0.0
 11
-1286.782069989967
 21
215.3895140789748
 31
0.0
  0
LINE
  5
F6E6
102
{ACAD_REACTORS
330
F70A
102
}
330
7A47
100
AcDbEntity
  8
0
100
AcDbLine
 10
-1294.707622861026
 20
195.1678827347825
 30
0.0
 11
-1286.782069989967
 21
215.3895140789748
 31
0.0
  0
LINE
  5
F6E7
102
{ACAD_REACTORS
330
F70A
102
}
330
7A47
100
AcDbEntity
  8
0
100
AcDbLine
 10
-1249.185350179982
 20
173.043856308411
 30
0.0
 11
-1269.782069989967
 21
223.0438563084101
 31
0.0
  0
LINE
  5
F6E8
102
{ACAD_REACTORS
330
F70A
102
}
330
7A47
100
AcDbEntity
  8
0
100
AcDbLine
 10
-1270.185350179982
 20
173.0438563084105
 30
0.0
 11
-1249.185350179982
 21
173.0438563084101
 31
0.0
  0
LINE
  5
F6E9
102
{ACAD_REACTORS
330
F70A
102
}
330
7A47
100
AcDbEntity
  8
0
100
AcDbLine
 10
-1270.185350179982
 20
173.043856308411
 30
0.0
 11
-1274.153304364512
 21
183.1678827347825
 31
0.0
  0
LINE
  5
F6EA
102
{ACAD_REACTORS
330
F70A
102
}
330
7A47
100
AcDbEntity
  8
0
100
AcDbLine
 10
-1299.410835615422
 20
183.1678827347825
 30
0.0
 11
-1274.153304364511
 21
183.1678827347825
 31
0.0
  0
LINE
  5
F6EB
102
{ACAD_REACTORS
330
F70A
102
}
330
7A47
100
AcDbEntity
  8
0
100
AcDbLine
 10
-1303.378789799953
 20
173.043856308411
 30
0.0
 11
-1299.410835615422
 21
183.1678827347825
 31
0.0
  0
LINE
  5
F6EC
102
{ACAD_REACTORS
330
F70A
102
}
330
7A47
100
AcDbEntity
  8
0
100
AcDbLine
 10
-1324.378789799952
 20
173.043856308411
 30
0.0
 11
-1303.378789799953
 21
173.0438563084105
 31
0.0
  0
LINE
  5
F6ED
102
{ACAD_REACTORS
330
F70A
102
}
330
7A47
100
AcDbEntity
  8
0
100
AcDbLine
 10
-1324.378789799953
 20
173.043856308411
 30
0.0
 11
-1303.782069989967
 21
223.0438563084101
 31
0.0
  0
LINE
  5
F6EE
102
{ACAD_REACTORS
330
F70A
102
}
330
7A47
100
AcDbEntity
  8
0
100
AcDbLine
 10
-1303.782069989967
 20
223.0438563084106
 30
0.0
 11
-1269.782069989968
 21
223.0438563084106
 31
0.0
  0
LINE
  5
F6EF
102
{ACAD_REACTORS
330
F70A
102
}
330
7A47
100
AcDbEntity
  8
0
100
AcDbLine
 10
-1327.378789799953
 20
192.157882335304
 30
0.0
 11
-1327.378789799953
 21
202.1578823353041
 31
0.0
  0
LINE
  5
F6F0
102
{ACAD_REACTORS
330
F70A
102
}
330
7A47
100
AcDbEntity
  8
0
100
AcDbLine
 10
-1355.378789799952
 20
192.1578823353045
 30
0.0
 11
-1327.378789799953
 21
192.157882335304
 31
0.0
  0
LINE
  5
F6F1
102
{ACAD_REACTORS
330
F70A
102
}
330
7A47
100
AcDbEntity
  8
0
100
AcDbLine
 10
-1355.378789799952
 20
173.0438563084101
 30
0.0
 11
-1355.378789799952
 21
192.157882335304
 31
0.0
  0
LINE
  5
F6F2
102
{ACAD_REACTORS
330
F70A
102
}
330
7A47
100
AcDbEntity
  8
0
100
AcDbLine
 10
-1380.378789799953
 20
173.0438563084101
 30
0.0
 11
-1355.378789799952
 21
173.0438563084096
 31
0.0
  0
LINE
  5
F6F3
102
{ACAD_REACTORS
330
F70A
102
}
330
7A47
100
AcDbEntity
  8
0
100
AcDbLine
 10
-1380.378789799953
 20
173.0438563084101
 30
0.0
 11
-1380.378789799953
 21
223.0438563084097
 31
0.0
  0
LINE
  5
F6F4
102
{ACAD_REACTORS
330
F70A
102
}
330
7A47
100
AcDbEntity
  8
0
100
AcDbLine
 10
-1380.378789799953
 20
223.0438563084097
 30
0.0
 11
-1327.378789799953
 21
223.0438563084097
 31
0.0
  0
LINE
  5
F6F5
102
{ACAD_REACTORS
330
F70A
102
}
330
7A47
100
AcDbEntity
  8
0
100
AcDbLine
 10
-1327.378789799953
 20
213.0438563084096
 30
0.0
 11
-1327.378789799953
 21
223.0438563084097
 31
0.0
  0
LINE
  5
F6F6
102
{ACAD_REACTORS
330
F70A
102
}
330
7A47
100
AcDbEntity
  8
0
100
AcDbLine
 10
-1355.378789799952
 20
213.0438563084096
 30
0.0
 11
-1327.378789799953
 21
213.0438563084092
 31
0.0
  0
LINE
  5
F6F7
102
{ACAD_REACTORS
330
F70A
102
}
330
7A47
100
AcDbEntity
  8
0
100
AcDbLine
 10
-1355.378789799952
 20
202.1578823353036
 30
0.0
 11
-1355.378789799952
 21
213.0438563084092
 31
0.0
  0
LINE
  5
F6F8
102
{ACAD_REACTORS
330
F70A
102
}
330
7A47
100
AcDbEntity
  8
0
100
AcDbLine
 10
-1355.378789799952
 20
202.1578823353041
 30
0.0
 11
-1327.378789799953
 21
202.1578823353041
 31
0.0
  0
LINE
  5
F6F9
102
{ACAD_REACTORS
330
F70A
102
}
330
7A47
100
AcDbEntity
  8
0
100
AcDbLine
 10
-1434.703671487018
 20
195.1678827347821
 30
0.0
 11
-1418.852565744901
 21
195.1678827347821
 31
0.0
  0
LINE
  5
F6FA
102
{ACAD_REACTORS
330
F70A
102
}
330
7A47
100
AcDbEntity
  8
0
100
AcDbLine
 10
-1418.8525657449
 20
195.1678827347821
 30
0.0
 11
-1426.77811861596
 21
215.3895140789743
 31
0.0
  0
LINE
  5
F6FB
102
{ACAD_REACTORS
330
F70A
102
}
330
7A47
100
AcDbEntity
  8
0
100
AcDbLine
 10
-1434.703671487018
 20
195.1678827347821
 30
0.0
 11
-1426.77811861596
 21
215.3895140789743
 31
0.0
  0
LINE
  5
F6FC
102
{ACAD_REACTORS
330
F70A
102
}
330
7A47
100
AcDbEntity
  8
0
100
AcDbLine
 10
-1389.181398805974
 20
173.0438563084105
 30
0.0
 11
-1409.778118615959
 21
223.0438563084097
 31
0.0
  0
LINE
  5
F6FD
102
{ACAD_REACTORS
330
F70A
102
}
330
7A47
100
AcDbEntity
  8
0
100
AcDbLine
 10
-1410.181398805974
 20
173.0438563084101
 30
0.0
 11
-1389.181398805974
 21
173.0438563084096
 31
0.0
  0
LINE
  5
F6FE
102
{ACAD_REACTORS
330
F70A
102
}
330
7A47
100
AcDbEntity
  8
0
100
AcDbLine
 10
-1410.181398805974
 20
173.0438563084105
 30
0.0
 11
-1414.149352990504
 21
183.1678827347821
 31
0.0
  0
LINE
  5
F6FF
102
{ACAD_REACTORS
330
F70A
102
}
330
7A47
100
AcDbEntity
  8
0
100
AcDbLine
 10
-1439.406884241413
 20
183.1678827347821
 30
0.0
 11
-1414.149352990504
 21
183.1678827347821
 31
0.0
  0
LINE
  5
F700
102
{ACAD_REACTORS
330
F70A
102
}
330
7A47
100
AcDbEntity
  8
0
100
AcDbLine
 10
-1443.374838425944
 20
173.0438563084105
 30
0.0
 11
-1439.406884241413
 21
183.1678827347821
 31
0.0
  0
LINE
  5
F701
102
{ACAD_REACTORS
330
F70A
102
}
330
7A47
100
AcDbEntity
  8
0
100
AcDbLine
 10
-1464.374838425944
 20
173.0438563084105
 30
0.0
 11
-1443.374838425944
 21
173.0438563084101
 31
0.0
  0
LINE
  5
F702
102
{ACAD_REACTORS
330
F70A
102
}
330
7A47
100
AcDbEntity
  8
0
100
AcDbLine
 10
-1464.374838425944
 20
173.0438563084105
 30
0.0
 11
-1443.77811861596
 21
223.0438563084097
 31
0.0
  0
LINE
  5
F703
102
{ACAD_REACTORS
330
F70A
102
}
330
7A47
100
AcDbEntity
  8
0
100
AcDbLine
 10
-1443.778118615959
 20
223.0438563084101
 30
0.0
 11
-1409.77811861596
 21
223.0438563084101
 31
0.0
  0
LINE
  5
F704
102
{ACAD_REACTORS
330
F70A
102
}
330
7A47
100
AcDbEntity
  8
0
100
AcDbLine
 10
-1493.559078237361
 20
186.3033127336964
 30
0.0
 11
-1493.559078237361
 21
223.0438563084101
 31
0.0
  0
LINE
  5
F705
102
{ACAD_REACTORS
330
F70A
102
}
330
7A47
100
AcDbEntity
  8
0
100
AcDbLine
 10
-1493.559078237361
 20
186.3033127336964
 30
0.0
 11
-1467.374838425944
 21
186.3033127336964
 31
0.0
  0
LINE
  5
F706
102
{ACAD_REACTORS
330
F70A
102
}
330
7A47
100
AcDbEntity
  8
0
100
AcDbLine
 10
-1467.374838425944
 20
173.0438563084096
 30
0.0
 11
-1467.374838425944
 21
186.3033127336964
 31
0.0
  0
LINE
  5
F707
102
{ACAD_REACTORS
330
F70A
102
}
330
7A47
100
AcDbEntity
  8
0
100
AcDbLine
 10
-1518.559078237361
 20
173.0438563084101
 30
0.0
 11
-1467.374838425944
 21
173.0438563084101
 31
0.0
  0
LINE
  5
F708
102
{ACAD_REACTORS
330
F70A
102
}
330
7A47
100
AcDbEntity
  8
0
100
AcDbLine
 10
-1518.559078237361
 20
173.0438563084101
 30
0.0
 11
-1518.559078237361
 21
223.0438563084101
 31
0.0
  0
LINE
  5
F709
102
{ACAD_REACTORS
330
F70A
102
}
330
7A47
100
AcDbEntity
  8
0
100
AcDbLine
 10
-1518.559078237361
 20
223.0438563084101
 30
0.0
 11
-1493.559078237361
 21
223.0438563084101
 31
0.0
  0
HATCH
  5
F70A
330
7A47
100
AcDbEntity
  8
0
100
AcDbHatch
 10
0.0
 20
0.0
 30
0.0
210
0.0
220
0.0
230
1.0
  2
SOLID
 70
     1
 71
     1
 91
       10
 92
        7
 72
     0
 73
     1
 93
        6
 10
-1518.559078237361
 20
173.0438563084101
 10
-1467.374838425944
 20
173.0438563084101
 10
-1467.374838425944
 20
186.3033127336965
 10
-1493.559078237361
 20
186.3033127336964
 10
-1493.559078237361
 20
223.0438563084102
 10
-1518.559078237361
 20
223.0438563084102
 97
        6
330
F709
330
F708
330
F707
330
F706
330
F705
330
F704
 92
        7
 72
     0
 73
     1
 93
        8
 10
-1439.406884241413
 20
183.1678827347821
 10
-1414.149352990504
 20
183.167882734782
 10
-1410.181398805973
 20
173.04385630841
 10
-1389.181398805973
 20
173.0438563084096
 10
-1409.778118615959
 20
223.0438563084102
 10
-1443.778118615959
 20
223.0438563084101
 10
-1464.374838425944
 20
173.0438563084105
 10
-1443.374838425945
 20
173.0438563084101
 97
        8
330
F703
330
F702
330
F701
330
F700
330
F6FF
330
F6FE
330
F6FD
330
F6FC
 92
       22
 72
     0
 73
     1
 93
        3
 10
-1434.703671487018
 20
195.1678827347822
 10
-1426.77811861596
 20
215.3895140789743
 10
-1418.8525657449
 20
195.1678827347821
 97
        3
330
F6FB
330
F6FA
330
F6F9
 92
        7
 72
     0
 73
     1
 93
       10
 10
-1380.378789799953
 20
173.0438563084101
 10
-1355.378789799952
 20
173.0438563084096
 10
-1355.378789799952
 20
192.1578823353046
 10
-1327.378789799953
 20
192.157882335304
 10
-1327.378789799953
 20
202.1578823353041
 10
-1355.378789799952
 20
202.1578823353041
 10
-1355.378789799952
 20
213.0438563084096
 10
-1327.378789799953
 20
213.0438563084092
 10
-1327.378789799953
 20
223.0438563084097
 10
-1380.378789799953
 20
223.0438563084097
 97
       10
330
F6F8
330
F6F7
330
F6F6
330
F6F5
330
F6F4
330
F6F3
330
F6F2
330
F6F1
330
F6F0
330
F6EF
 92
        7
 72
     0
 73
     1
 93
        8
 10
-1324.378789799953
 20
173.043856308411
 10
-1303.378789799953
 20
173.0438563084105
 10
-1299.410835615422
 20
183.1678827347826
 10
-1274.153304364512
 20
183.1678827347825
 10
-1270.185350179982
 20
173.0438563084105
 10
-1249.185350179982
 20
173.04385630841
 10
-1269.782069989967
 20
223.0438563084106
 10
-1303.782069989967
 20
223.0438563084105
 97
        8
330
F6EE
330
F6ED
330
F6EC
330
F6EB
330
F6EA
330
F6E9
330
F6E8
330
F6E7
 92
       22
 72
     0
 73
     1
 93
        3
 10
-1294.707622861026
 20
195.1678827347828
 10
-1286.782069989967
 20
215.3895140789748
 10
-1278.856517118908
 20
195.1678827347825
 97
        3
330
F6E6
330
F6E5
330
F6E4
 92
        7
 72
     1
 73
     1
 93
       10
 10
-1190.969000953773
 20
223.0438563084097
 42
-0.9810497451805865
 10
-1190.473898633335
 20
197.1673552662618
 42
-0.3166321639699637
 10
-1176.211092438234
 20
173.0438563084101
 42
0.0
 10
-1199.571017262543
 20
173.0438563084096
 42
0.0
 10
-1199.571017262543
 20
180.60954136351
 42
0.3493694722793605
 10
-1209.635644491142
 20
192.157882335304
 42
0.0
 10
-1215.62419219443
 20
192.157882335304
 42
0.0
 10
-1215.62419219443
 20
173.0438563084097
 42
0.0
 10
-1240.62419219443
 20
173.0438563084101
 42
0.0
 10
-1240.62419219443
 20
223.0438563084097
 42
0.0
 97
       10
330
F6E3
330
F6E2
330
F6E1
330
F6E0
330
F6DF
330
F6DE
330
F6DD
330
F6DC
330
F6DB
330
F6DA
 92
       22
 72
     1
 73
     1
 93
        4
 10
-1215.62419219443
 20
202.1578823353038
 42
0.0
 10
-1215.624192194431
 20
213.0438563084097
 42
0.0
 10
-1205.481115653641
 20
213.0438563084092
 42
-1.0
 10
-1205.481115653641
 20
202.1578823353036
 42
0.0
 97
        4
330
F6D9
330
F6D8
330
F6D7
330
F6D6
 92
        7
 72
     1
 73
     1
 93
       11
 10
-1141.818131336825
 20
173.043856308411
 42
0.0
 10
-1105.401837835528
 20
173.043856308411
 42
0.0
 10
-1105.401837835527
 20
202.491485353228
 42
0.0
 10
-1127.246038806351
 20
202.4914853532275
 42
0.0
 10
-1127.246038806351
 20
192.6783506692206
 42
0.0
 10
-1122.007194855042
 20
192.6783506692203
 42
0.0
 10
-1122.007194855042
 20
184.0119362215452
 42
-0.935968909692365
 10
-1134.901779767523
 20
212.3794911317753
 42
-0.208678782449797
 10
-1105.401837835527
 20
210.9179973212721
 42
0.0
 10
-1105.401837835527
 20
223.0438563084097
 42
0.0
 10
-1141.818131336825
 20
223.0438563084097
 42
1.0
 97
       11
330
F6D5
330
F6D4
330
F6D3
330
F6D2
330
F6D1
330
F6D0
330
F6CF
330
F6CE
330
F6CD
330
F6CC
330
F6CB
 92
        7
 72
     0
 73
     1
 93
       12
 10
-1086.167167217448
 20
173.043856308411
 10
-1033.167167217448
 20
173.0438563084109
 10
-1033.167167217448
 20
182.0438563084115
 10
-1061.167167217448
 20
182.04385630841
 10
-1061.167167217448
 20
193.043856308411
 10
-1033.167167217448
 20
193.0438563084101
 10
-1033.167167217448
 20
203.0438563084101
 10
-1061.167167217448
 20
203.04385630841
 10
-1061.167167217448
 20
214.0438563084097
 10
-1033.167167217448
 20
214.0438563084093
 10
-1033.167167217448
 20
223.0438563084097
 10
-1086.167167217448
 20
223.0438563084096
 97
       12
330
F6CA
330
F6C9
330
F6C8
330
F6C7
330
F6C6
330
F6C5
330
F6C4
330
F6C3
330
F6C2
330
F6C1
330
F6C0
330
F6BF
 75
     0
 76
     1
 47
0.9915722362735602
 98
       10
 10
-1506.965382466372
 20
205.3896285156445
 10
-1442.483692079116
 20
191.5076079564262
 10
-1442.483692079116
 20
191.5076079564262
 10
-1370.065802342061
 20
193.4907599948858
 10
-1308.560217805839
 20
186.5497570002774
 10
-1308.560217805839
 20
186.5497570002774
 10
-1222.253962245801
 20
190.5160465071969
 10
-1222.253962245801
 20
190.5160465071969
 10
-1156.780266727458
 20
190.5160465071969
 10
-1077.418182771692
 20
195.4738974633458
450
        0
451
        0
460
0.0
461
0.0
452
        0
462
0.0
453
        0
470

  0
LINE
  5
F70B
330
7A47
100
AcDbEntity
  8
0
100
AcDbLine
 10
-87.72503757492268
 20
151.8570000313047
 30
0.0
 11
-957.7250375749228
 21
151.8570000313047
 31
0.0
  0
MTEXT
  5
F70C
330
7A47
100
AcDbEntity
  8
0
100
AcDbMText
 10
-942.5903069472505
 20
131.1880500074608
 30
0.0
 40
20.0
 41
77.35910045700551
 71
     1
 72
     5
  1
Dato
  7
ARIAL
 73
     1
 44
1.0
  0
MTEXT
  5
F70D
330
7A47
100
AcDbEntity
  8
0
100
AcDbMText
 10
-620.1452760643315
 20
131.8725109002757
 30
0.0
 40
20.0
 41
195.7142857142857
 71
     1
 72
     5
  1
Mål
  7
ARIAL
 73
     1
 44
1.0
  0
MTEXT
  5
F70E
330
7A47
100
AcDbEntity
  8
0
100
AcDbMText
 10
-412.9511459111636
 20
131.1880500074608
 30
0.0
 40
20.0
 41
123.4966330743262
 71
     1
 72
     5
  1
Tegn.nr.
  7
ARIAL
 73
     1
 44
1.0
  0
MTEXT
  5
F70F
330
7A47
100
AcDbEntity
  8
0
100
AcDbMText
 10
-858.5053046133108
 20
131.1880500074608
 30
0.0
 40
20.0
 41
77.35910045700551
 71
     1
 72
     5
  1
:
  7
ARIAL
 73
     1
 44
1.0
  0
MTEXT
  5
F710
330
7A47
100
AcDbEntity
  8
0
100
AcDbMText
 10
-858.5053046133108
 20
192.0637300074604
 30
0.0
 40
20.0
 41
77.35910045700551
 71
     1
 72
     5
  1
:
  7
ARIAL
 73
     1
 44
1.0
  0
MTEXT
  5
F711
330
7A47
100
AcDbEntity
  8
0
100
AcDbMText
 10
-942.5903069472505
 20
192.0637300074604
 30
0.0
 40
20.0
 41
77.35910045700551
 71
     1
 72
     5
  1
Emne
  7
ARIAL
 73
     1
 44
1.0
  0
MTEXT
  5
F712
330
7A47
100
AcDbEntity
  8
0
100
AcDbMText
 10
-559.5767103191247
 20
131.1880500074608
 30
0.0
 40
20.0
 41
77.35910045700551
 71
     1
 72
     5
  1
:
  7
ARIAL
 73
     1
 44
1.0
  0
MTEXT
  5
F713
330
7A47
100
AcDbEntity
  8
0
100
AcDbMText
 10
-287.9801683350088
 20
131.1880500074608
 30
0.0
 40
20.0
 41
77.35910045700551
 71
     1
 72
     5
  1
:
  7
ARIAL
 73
     1
 44
1.0
  0
ENDBLK
  5
7AEF
330
7A47
100
AcDbEntity
  8
0
100
AcDbBlockEnd
  0
BLOCK
  5
7AF1
330
7AF0
100
AcDbEntity
  8
0
100
AcDbBlockBegin
  2
Modelramme A4_1-10
 70
     0
 10
0.0
 20
0.0
 30
0.0
  3
Modelramme A4_1-10
  1

  0
LWPOLYLINE
  5
7AF2
330
7AF0
100
AcDbEntity
  8
0
100
AcDbPolyline
 90
        3
 70
     0
 43
0.0
 10
3150.0
 20
2810.0
 10
3150.0
 20
2970.0
 10
2990.0
 20
2970.0
  0
LWPOLYLINE
  5
7AF3
330
7AF0
100
AcDbEntity
  8
0
100
AcDbPolyline
 90
        3
 70
     0
 43
0.0
 10
3150.0
 20
160.0
 10
3150.0
 20
0.0
 10
2990.0
 20
0.0
  0
LWPOLYLINE
  5
7AF4
330
7AF0
100
AcDbEntity
  8
0
100
AcDbPolyline
 90
        3
 70
     0
 43
0.0
 10
1050.0
 20
160.0
 10
1050.0
 20
0.0
 10
1210.0
 20
0.0
  0
LWPOLYLINE
  5
7AF5
330
7AF0
100
AcDbEntity
  8
0
100
AcDbPolyline
 90
        3
 70
     0
 43
0.0
 10
1050.0
 20
2810.0
 10
1050.0
 20
2970.0
 10
1210.0
 20
2970.0
  0
LWPOLYLINE
  5
7AF6
330
7AF0
100
AcDbEntity
  8
0
100
AcDbPolyline
 90
        4
 70
     1
 43
0.0
 10
1110.0
 20
60.0
 10
3090.0
 20
60.0
 10
3090.0
 20
2910.0
 10
1110.0
 20
2910.0
  0
ENDBLK
  5
7AF7
330
7AF0
100
AcDbEntity
  8
0
100
AcDbBlockEnd
  0
BLOCK
  5
C9DD
330
C9DA
100
AcDbEntity
  8
0
100
AcDbBlockBegin
  2
Vent pil
 70
     0
 10
0.0
 20
0.0
 30
0.0
  3
Vent pil
  1

  0
ARC
  5
C9DE
330
C9DA
100
AcDbEntity
  8
0
  6
ByBlock
 62
     0
100
AcDbCircle
 10
25.41259804018114
 20
-11.55738662379735
 30
0.0
 40
27.91725854599167
100
AcDbArc
 50
58.74726086026667
 51
155.5444505960592
  0
ARC
  5
C9DF
330
C9DA
100
AcDbEntity
  8
0
  6
ByBlock
 62
     0
100
AcDbCircle
 10
54.77842183258804
 20
35.90752396412427
 30
0.0
 40
27.89939618971354
100
AcDbArc
 50
237.7635175642426
 51
302.3706702458458
  0
LINE
  5
C9E0
330
C9DA
100
AcDbEntity
  8
0
  6
ByBlock
 62
     0
100
AcDbLine
 10
65.0707248955016
 20
20.74512820867085
 30
0.0
 11
74.36048602326923
 21
3.942142218407752
 31
0.0
  0
LINE
  5
C9E1
330
C9DA
100
AcDbEntity
  8
0
  6
ByBlock
 62
     0
100
AcDbLine
 10
86.5185914496485
 20
21.63339634130716
 30
0.0
 11
65.0707248955016
 21
20.74512820867085
 31
0.0
  0
LINE
  5
C9E2
330
C9DA
100
AcDbEntity
  8
0
  6
ByBlock
 62
     0
100
AcDbLine
 10
74.36048602326923
 20
3.942142218407752
 30
0.0
 11
86.5185914496485
 21
21.63339634130716
 31
0.0
  0
ENDBLK
  5
C9E3
330
C9DA
100
AcDbEntity
  8
0
100
AcDbBlockEnd
  0
BLOCK
  5
D871
330
D86E
100
AcDbEntity
  8
0
100
AcDbBlockBegin
  2
A$C74004F54
 70
     0
 10
0.0
 20
0.0
 30
0.0
  3
A$C74004F54
  1

  0
LINE
  5
10B6E
330
D86E
100
AcDbEntity
  8
LAFARGE99--S-2
100
AcDbLine
 10
-4.359031000156846
 20
9.16809028255102
 30
0.0
 11
-0.7867067255936036
 21
12.73684401781156
 31
0.0
  0
LINE
  5
10B6F
330
D86E
100
AcDbEntity
  8
LAFARGE99--S-2
100
AcDbLine
 10
-4.849992949556963
 20
0.1965771361942643
 30
0.0
 11
3.131460684333205
 21
8.170053304518205
 31
0.0
  0
LINE
  5
10B70
330
D86E
100
AcDbEntity
  8
LAFARGE99--S-2
100
AcDbLine
 10
3.442760437610559
 20
0.0
 30
0.0
 11
9.467937808374699
 21
6.01915520397506
 31
0.0
  0
LINE
  5
10B71
330
D86E
100
AcDbEntity
  8
LAFARGE99--S-2
100
AcDbLine
 10
9.899488448571219
 20
-2.030767404426114
 30
0.0
 11
17.41187691556342
 21
5.474112427791169
 31
0.0
  0
LINE
  5
10B72
330
D86E
100
AcDbEntity
  8
LAFARGE99--S-2
100
AcDbLine
 10
16.19738843397772
 20
-4.220204085741443
 30
0.0
 11
25.96456029715364
 21
5.537205485903314
 31
0.0
  0
LINE
  5
10B73
330
D86E
100
AcDbEntity
  8
LAFARGE99--S-2
100
AcDbLine
 10
21.85487763990341
 20
-7.049411455750487
 30
0.0
 11
30.00513213996328
 21
1.0926968622216
 31
0.0
  0
LINE
  5
10B74
330
D86E
100
AcDbEntity
  8
LAFARGE99--S-2
100
AcDbLine
 10
26.94920809888277
 20
-10.44121469535071
 30
0.0
 11
34.21494454509957
 21
-3.182740355136502
 31
0.0
  0
LINE
  5
10B75
330
D86E
100
AcDbEntity
  8
LAFARGE99--S-2
100
AcDbLine
 10
31.54571732420186
 20
-14.33034159612225
 30
0.0
 11
38.63503269257217
 21
-7.248112000824676
 31
0.0
  0
LINE
  5
10B76
330
D86E
100
AcDbEntity
  8
LAFARGE99--S-2
100
AcDbLine
 10
36.1473657392421
 20
-18.21433444379408
 30
0.0
 11
43.26672618448333
 21
-11.10208980168954
 31
0.0
  0
LINE
  5
10B77
330
D86E
100
AcDbEntity
  8
LAFARGE99--S-2
100
AcDbLine
 10
40.94659071014485
 20
-21.90094821343769
 30
0.0
 11
48.11296059005986
 21
-14.7417411226047
 31
0.0
  0
LINE
  5
10B78
330
D86E
100
AcDbEntity
  8
LAFARGE99--S-2
100
AcDbLine
 10
45.94703144803633
 20
-25.38654733131807
 30
0.0
 11
53.17838989763186
 21
-18.16241662690163
 31
0.0
  0
LINE
  5
10B79
330
D86E
100
AcDbEntity
  8
LAFARGE99--S-2
100
AcDbLine
 10
51.15378304363594
 20
-28.66604179926117
 30
0.0
 11
58.46957194001561
 21
-21.35756503632024
 31
0.0
  0
LINE
  5
10B7A
330
D86E
100
AcDbEntity
  8
LAFARGE99--S-2
100
AcDbLine
 10
56.5735759902027
 20
-31.73270785113891
 30
0.0
 11
63.99524476159331
 21
-24.31845704015723
 31
0.0
  0
LINE
  5
10B7B
330
D86E
100
AcDbEntity
  8
LAFARGE99--S-2
100
AcDbLine
 10
61.05114337841929
 20
-35.74065770660695
 30
0.0
 11
69.76672283042626
 21
-27.03378947916553
 31
0.0
  0
LINE
  5
10B7C
330
D86E
100
AcDbEntity
  8
LAFARGE99--S-2
100
AcDbLine
 10
64.15655626140642
 20
-41.11939059841961
 30
0.0
 11
75.79845873631803
 21
-29.48912420890975
 31
0.0
  0
LINE
  5
10B7D
330
D86E
100
AcDbEntity
  8
LAFARGE99--S-2
100
AcDbLine
 10
67.34822396788809
 20
-46.41195487846289
 30
0.0
 11
82.10884303305148
 21
-31.66608905697194
 31
0.0
  0
LINE
  5
10B7E
330
D86E
100
AcDbEntity
  8
LAFARGE99--S-2
100
AcDbLine
 10
74.99886758077877
 20
-47.25
 30
0.0
 11
88.72136060704429
 21
-33.5412226100857
 31
0.0
  0
LINE
  5
10B7F
330
D86E
100
AcDbEntity
  8
LAFARGE99--S-2
100
AcDbLine
 10
87.25961323273418
 20
-43.48255088099676
 30
0.0
 11
95.66662726683649
 21
-35.08393966022231
 31
0.0
  0
LINE
  5
10B80
330
D86E
100
AcDbEntity
  8
LAFARGE99--S-2
100
AcDbLine
 10
94.2384342909836
 20
-44.99174707030852
 30
0.0
 11
102.9875282241758
 21
-36.25139785941724
 31
0.0
  0
LINE
  5
10B81
330
D86E
100
AcDbEntity
  8
LAFARGE99--S-2
100
AcDbLine
 10
101.5633903351906
 20
-46.15515423569649
 30
0.0
 11
110.7392944902617
 21
-36.98842139988528
 31
0.0
  0
LINE
  5
10B82
330
D86E
100
AcDbEntity
  8
LAFARGE99--S-2
100
AcDbLine
 10
109.2801774179086
 20
-46.92712199782727
 30
0.0
 11
118.9980198528114
 21
-37.21899254967548
 31
0.0
  0
LINE
  5
10B83
330
D86E
100
AcDbEntity
  8
LAFARGE99--S-2
100
AcDbLine
 10
117.4505510620638
 20
-47.2459565584395
 30
0.0
 11
127.874763731005
 21
-36.83216289353368
 31
0.0
  0
LINE
  5
10B84
330
D86E
100
AcDbEntity
  8
LAFARGE99--S-2
100
AcDbLine
 10
126.1611654746848
 20
-47.02509032141438
 30
0.0
 11
137.5427240992314
 21
-35.65490756850454
 31
0.0
  0
LINE
  5
10B85
330
D86E
100
AcDbEntity
  8
LAFARGE99--S-2
100
AcDbLine
 10
135.5400336189104
 20
-46.13663827261189
 30
0.0
 11
148.3002836663522
 21
-33.38914209934342
 31
0.0
  0
LINE
  5
10B86
330
D86E
100
AcDbEntity
  8
LAFARGE99--S-2
100
AcDbLine
 10
145.7906481885475
 20
-44.37731110924096
 30
0.0
 11
160.7540784814618
 21
-29.42883676988868
 31
0.0
  0
LINE
  5
10B87
330
D86E
100
AcDbEntity
  8
LAFARGE99--S-2
100
AcDbLine
 10
156.6149220007969
 20
-42.04489807586106
 30
0.0
 11
176.6430938052874
 21
-22.03674443576119
 31
0.0
  0
LINE
  5
10B88
330
D86E
100
AcDbEntity
  8
LAFARGE99--S-2
100
AcDbLine
 10
160.058092796711
 20
-47.08621064389354
 30
0.0
 11
226.9574840636269
 21
19.74631465916536
 31
0.0
  0
LINE
  5
10B89
330
D86E
100
AcDbEntity
  8
LAFARGE99--S-2
100
AcDbLine
 10
188.8849624160098
 20
-26.76919540397103
 30
0.0
 11
239.051577981988
 21
23.34727861303736
 31
0.0
  0
LINE
  5
10B8A
330
D86E
100
AcDbEntity
  8
LAFARGE99--S-2
100
AcDbLine
 10
168.3836667681507
 20
-47.25
 30
0.0
 11
176.2101998220503
 21
-39.43128956849523
 31
0.0
  0
LINE
  5
10B8B
330
D86E
100
AcDbEntity
  8
LAFARGE99--S-2
100
AcDbLine
 10
231.7110921904953
 20
7.533087725949826
 30
0.0
 11
247.837977378324
 21
23.64385408666112
 31
0.0
  0
LINE
  5
10B8C
330
D86E
100
AcDbEntity
  8
LAFARGE99--S-2
100
AcDbLine
 10
242.6370887378123
 20
9.967121822489389
 30
0.0
 11
255.1507104468924
 21
22.46823616250276
 31
0.0
  0
LINE
  5
10B8D
330
D86E
100
AcDbEntity
  8
LAFARGE99--S-2
100
AcDbLine
 10
254.2058687051599
 20
13.04329687681684
 30
0.0
 11
261.486214634987
 21
20.31636609846191
 31
0.0
  0
LINE
  5
10B8E
330
D86E
100
AcDbEntity
  8
LAFARGE99--S-2
100
AcDbLine
 10
262.1498078123486
 20
12.49825410063295
 30
0.0
 11
267.0575120687908
 21
17.40105310503622
 31
0.0
  0
LINE
  5
10B8F
330
D86E
100
AcDbEntity
  8
LAFARGE99--S-2
100
AcDbLine
 10
265.5662106340287
 20
7.430200312966462
 30
0.0
 11
271.9678272948638
 21
13.82541855581576
 31
0.0
  0
LINE
  5
10B90
330
D86E
100
AcDbEntity
  8
LAFARGE99--S-2
100
AcDbLine
 10
273.4372118543906
 20
6.812292551397604
 30
0.0
 11
275.6960507482215
 21
9.068873735001488
 31
0.0
  0
LINE
  5
10B91
330
D86E
100
AcDbEntity
  8
0
  6
Continuous
370
    15
100
AcDbLine
 10
169.9640144421364
 20
-47.25
 30
0.0
 11
160.8507657880845
 21
-47.25
 31
0.0
  0
LINE
  5
10B92
330
D86E
100
AcDbEntity
  8
0
  6
Continuous
370
    15
100
AcDbLine
 10
266.0362466830252
 20
7.320081262893609
 30
0.0
 11
274.6276150275964
 21
6.730617623940815
 31
0.0
  0
LINE
  5
10B93
330
D86E
100
AcDbEntity
  8
0
  6
Continuous
370
    15
100
AcDbLine
 10
275.6960652497053
 20
9.059545890031131
 30
0.0
 11
275.6960652497053
 21
7.728272156879484
 31
0.0
  0
LINE
  5
10B94
330
D86E
100
AcDbEntity
  8
0
  6
Continuous
370
    15
100
AcDbLine
 10
78.54136471132597
 20
-47.25
 30
0.0
 11
69.42811605727411
 21
-47.25
 31
0.0
  0
LINE
  5
10B95
330
D86E
100
AcDbEntity
  8
0
  6
Continuous
370
    15
100
AcDbLine
 10
4.452583128691912
 20
0.0
 30
0.0
 11
-4.452583128691912
 21
0.0
 31
0.0
  0
LINE
  5
10B96
330
D86E
100
AcDbEntity
  8
0
  6
Continuous
370
    15
100
AcDbLine
 10
-4.167034306077312
 20
11.96642119013063
 30
0.0
 11
-4.951410395161474
 21
0.5342251110541838
 31
0.0
  0
LINE
  5
10B97
330
D86E
100
AcDbEntity
  8
0
  6
Continuous
370
    15
100
AcDbLine
 10
1.513200573180938
 20
12.57904473937105
 30
0.0
 11
-3.100929551029821
 21
12.8956255009607
 31
0.0
  0
LINE
  5
10B98
330
D86E
100
AcDbEntity
  8
0
  6
Continuous
370
    15
100
AcDbLine
 10
20.1821176726412
 20
6.026966488562266
 30
0.0
 11
20.44282942145946
 21
6.787361327804774
 31
0.0
  0
LINE
  5
10B99
330
D86E
100
AcDbEntity
  8
0
  6
Continuous
370
    15
100
AcDbLine
 10
5.003005342495953
 20
6.325499343052342
 30
0.0
 11
19.16772339257249
 21
5.353641786529806
 31
0.0
  0
LINE
  5
10B9A
330
D86E
100
AcDbEntity
  8
0
  6
Continuous
370
    15
100
AcDbLine
 10
249.7472767833026
 20
11.69261686401387
 30
0.0
 11
249.4977950674202
 21
10.68638933635384
 31
0.0
  0
LINE
  5
10B9B
330
D86E
100
AcDbEntity
  8
0
  6
Continuous
370
    15
100
AcDbLine
 10
264.2539797286533
 20
12.35388445135004
 30
0.0
 11
251.8254005525916
 21
13.20662352786348
 31
0.0
  0
LINE
  5
10B9C
330
D86E
100
AcDbEntity
  8
0
  6
Continuous
370
    15
100
AcDbLine
 10
66.83003984592096
 20
-45.75
 30
0.0
 11
59.95882939949343
 21
-33.84871439728977
 31
0.0
  0
LINE
  5
10B9D
330
D86E
100
AcDbEntity
  8
0
  6
Continuous
370
    15
100
AcDbLine
 10
82.19654474996287
 20
-42.91904246226954
 30
0.0
 11
80.27341551889504
 21
-46.25
 31
0.0
  0
LINE
  5
10B9E
330
D86E
100
AcDbEntity
  8
0
  6
Continuous
370
    15
100
AcDbLine
 10
159.1187149805155
 20
-46.25
 30
0.0
 11
156.8502755966078
 21
-42.32094773318158
 31
0.0
  0
LINE
  5
10B9F
330
D86E
100
AcDbEntity
  8
0
  6
Continuous
370
    15
100
AcDbLine
 10
28.48078747192722
 20
2.750000000000227
 30
0.0
 11
24.23754369670087
 21
7.45020848948161
 31
0.0
  0
LINE
  5
10BA0
330
D86E
100
AcDbEntity
  8
0
  6
Continuous
370
     0
100
AcDbLine
 10
22.88990805844401
 20
8.105311369792161
 30
0.0
 11
22.4716179815905
 21
8.134010731867192
 31
0.0
  0
LINE
  5
10BA1
330
D86E
100
AcDbEntity
  8
0
  6
Continuous
370
    15
100
AcDbLine
 10
3.177152786307487
 20
7.936620096513706
 30
0.0
 11
2.426126851275512
 21
11.77348436263992
 31
0.0
  0
LINE
  5
10BA2
330
D86E
100
AcDbEntity
  8
0
  6
Continuous
370
    15
100
AcDbLine
 10
5.570611536195656
 20
-0.936482006101869
 30
0.0
 11
5.318608532476218
 21
-0.5
 31
0.0
  0
LINE
  5
10BA3
330
D86E
100
AcDbEntity
  8
0
  6
Continuous
370
    15
100
AcDbLine
 10
180.6334658571206
 20
-31.76996806035982
 30
0.0
 11
172.5620906534898
 21
-45.75
 31
0.0
  0
LINE
  5
10BA4
330
D86E
100
AcDbEntity
  8
0
  6
Continuous
370
     0
100
AcDbLine
 10
248.4587331827756
 20
9.929386004429034
 30
0.0
 11
247.8505795303572
 21
9.971112124253068
 31
0.0
  0
LINE
  5
10BA5
330
D86E
100
AcDbEntity
  8
0
  6
Continuous
370
    15
100
AcDbLine
 10
264.2539797286533
 20
12.35388445135004
 30
0.0
 11
264.6473457533943
 21
8.657817189065099
 31
0.0
  0
ARC
  5
10BA6
330
D86E
100
AcDbEntity
  8
0
  6
Continuous
370
    15
100
AcDbCircle
 10
118.4807874719274
 20
83.99999999999636
 30
0.0
 40
131.2499999999984
100
AcDbArc
 50
254.4658543920615
 51
286.4739905297787
  0
ARC
  5
10BA7
330
D86E
100
AcDbEntity
  8
0
  6
Continuous
370
    15
100
AcDbCircle
 10
118.2155862770344
 20
82.778456580294
 30
0.0
 40
120.000000000001
100
AcDbArc
 50
257.7509800837748
 51
321.4181169786332
  0
ARC
  5
10BA8
330
D86E
100
AcDbEntity
  8
0
  6
Continuous
370
    15
100
AcDbCircle
 10
118.4807874719265
 20
83.99999999999341
 30
0.0
 40
121.2499999999961
100
AcDbArc
 50
222.0750220508378
 51
257.7509800837593
  0
ARC
  5
10BA9
330
D86E
100
AcDbEntity
  8
0
  6
Continuous
370
    15
100
AcDbCircle
 10
22.75300761422636
 20
6.110002303914825
 30
0.0
 40
2.00000000000021
100
AcDbArc
 50
42.07502205083786
 51
86.07502205083871
  0
ARC
  5
10BAA
330
D86E
100
AcDbEntity
  8
0
  6
Continuous
370
    15
100
AcDbCircle
 10
22.33471753737308
 20
6.138701665989174
 30
0.0
 40
2.000000000000419
100
AcDbArc
 50
86.07502205085172
 51
161.0750220508385
  0
ARC
  5
10BAB
330
D86E
100
AcDbEntity
  8
0
  6
Continuous
370
    15
100
AcDbCircle
 10
19.23617361468405
 20
6.351296319468019
 30
0.0
 40
0.9999999999995829
100
AcDbArc
 50
266.0750220506697
 51
341.0750220509498
  0
ARC
  5
10BAC
330
D86E
100
AcDbEntity
  8
0
  6
Continuous
370
    15
100
AcDbCircle
 10
5.139905786713597
 20
8.320808408930133
 30
0.0
 40
2.000000000000058
100
AcDbArc
 50
191.0750220508942
 51
266.0750220508388
  0
ARC
  5
10BAD
330
D86E
100
AcDbEntity
  8
0
  6
Continuous
370
    15
100
AcDbCircle
 10
1.444750351071888
 20
11.58139020643216
 30
0.0
 40
1.000000000000419
100
AcDbArc
 50
11.07502205085337
 51
86.07502205082573
  0
ARC
  5
10BAE
330
D86E
100
AcDbEntity
  8
0
  6
Continuous
370
    15
100
AcDbCircle
 10
-3.169379773138643
 20
11.89797096802181
 30
0.0
 40
0.9999999999999973
100
AcDbArc
 50
86.07502205083871
 51
176.0750220508387
  0
ARC
  5
10BAF
330
D86E
100
AcDbEntity
  8
0
  6
Continuous
370
    15
100
AcDbCircle
 10
-4.452583128691912
 20
0.5
 30
0.0
 40
0.4999999999999402
100
AcDbArc
 50
176.0750220508387
 51
270.0
  0
ARC
  5
10BB0
330
D86E
100
AcDbEntity
  8
0
  6
Continuous
370
    15
100
AcDbCircle
 10
4.452583128691458
 20
-1.000000000002273
 30
0.0
 40
1.00000000000237
100
AcDbArc
 50
30.00000000010232
 51
90.0
  0
ARC
  5
10BB1
330
D86E
100
AcDbEntity
  8
0
  6
Continuous
370
    15
100
AcDbCircle
 10
5.83041915733429
 20
-0.7864820061076899
 30
0.0
 40
0.3000000000000961
100
AcDbArc
 50
209.9999999987369
 51
259.4451143725117
  0
ARC
  5
10BB2
330
D86E
100
AcDbEntity
  8
0
  6
Continuous
370
    15
100
AcDbCircle
 10
-3.446107999868445
 20
-50.57193837714862
 30
0.0
 40
50.34233033907056
100
AcDbArc
 50
47.82231890391189
 51
79.44511437249895
  0
ARC
  5
10BB3
330
D86E
100
AcDbEntity
  8
0
  6
Continuous
370
    15
100
AcDbCircle
 10
118.4807874720336
 20
84.0000000003231
 30
0.0
 40
131.2500000003595
100
AcDbArc
 50
227.8223189039855
 51
243.1158696551267
  0
ARC
  5
10BB4
330
D86E
100
AcDbEntity
  8
0
  6
Continuous
370
    15
100
AcDbCircle
 10
58.22677859192435
 20
-34.84871439729
 30
0.0
 40
2.000000000000313
100
AcDbArc
 50
29.99999999999729
 51
63.1158696550975
  0
ARC
  5
10BB5
330
D86E
100
AcDbEntity
  8
0
  6
Continuous
370
    15
100
AcDbCircle
 10
69.42811605727456
 20
-44.24999999999863
 30
0.0
 40
3.000000000001588
100
AcDbArc
 50
210.0000000000151
 51
270.0
  0
ARC
  5
10BB6
330
D86E
100
AcDbEntity
  8
0
  6
Continuous
370
    15
100
AcDbCircle
 10
78.54136471132597
 20
-45.25000000000045
 30
0.0
 40
1.999999999999753
100
AcDbArc
 50
270.0
 51
330.000000000014
  0
ARC
  5
10BB7
330
D86E
100
AcDbEntity
  8
0
  6
Continuous
370
    15
100
AcDbCircle
 10
83.06257015374649
 20
-43.4190424622725
 30
0.0
 40
1.000000000001093
100
AcDbArc
 50
74.46585439207407
 51
149.999999999833
  0
ARC
  5
10BB8
330
D86E
100
AcDbEntity
  8
0
  6
Continuous
370
    15
100
AcDbCircle
 10
155.9842501928235
 20
-42.82094773318158
 30
0.0
 40
1.000000000000137
100
AcDbArc
 50
30.00000000001508
 51
106.4739905297662
  0
ARC
  5
10BB9
330
D86E
100
AcDbEntity
  8
0
  6
Continuous
370
    15
100
AcDbCircle
 10
160.850765788085
 20
-45.24999999999749
 30
0.0
 40
2.000000000002793
100
AcDbArc
 50
210.000000000062
 51
270.0
  0
ARC
  5
10BBA
330
D86E
100
AcDbEntity
  8
0
  6
Continuous
370
    15
100
AcDbCircle
 10
169.9640144421364
 20
-44.25000000000046
 30
0.0
 40
2.999999999999776
100
AcDbArc
 50
270.0
 51
330.000000000014
  0
ARC
  5
10BBB
330
D86E
100
AcDbEntity
  8
0
  6
Continuous
370
    15
100
AcDbCircle
 10
181.4994912609281
 20
-32.26996806038278
 30
0.0
 40
1.000000000032847
100
AcDbArc
 50
118.4578378813486
 51
149.9999999995179
  0
ARC
  5
10BBC
330
D86E
100
AcDbEntity
  8
0
  6
Continuous
370
    15
100
AcDbCircle
 10
118.4807874719477
 20
83.99999999997318
 30
0.0
 40
131.2499999999669
100
AcDbArc
 50
298.4578378808588
 51
318.6456009685912
  0
ARC
  5
10BBD
330
D86E
100
AcDbEntity
  8
0
  6
Continuous
370
    15
100
AcDbCircle
 10
245.2725909223832
 20
-27.60279109147541
 30
0.0
 40
37.66223875618591
100
AcDbArc
 50
86.07502205083871
 51
138.6456009685911
  0
ARC
  5
10BBE
330
D86E
100
AcDbEntity
  8
0
  6
Continuous
370
    15
100
AcDbCircle
 10
248.5271834048847
 20
10.92704053736747
 30
0.0
 40
0.9999999999996417
100
AcDbArc
 50
266.0750220508388
 51
346.0750220508697
  0
ARC
  5
10BBF
330
D86E
100
AcDbEntity
  8
0
  6
Continuous
370
    15
100
AcDbCircle
 10
251.6885001083738
 20
11.2113144619866
 30
0.0
 40
1.999999999999444
100
AcDbArc
 50
86.07502205083871
 51
166.0750220508696
  0
ARC
  5
10BC0
330
D86E
100
AcDbEntity
  8
0
  6
Continuous
370
    15
100
AcDbCircle
 10
266.1389220161877
 20
8.816563062300929
 30
0.0
 40
1.499999999999064
100
AcDbArc
 50
186.0750220508231
 51
266.0750220508656
  0
ARC
  5
10BC1
330
D86E
100
AcDbEntity
  8
0
  6
Continuous
370
    15
100
AcDbCircle
 10
274.6960652497046
 20
7.728272156880393
 30
0.0
 40
1.000000000001313
100
AcDbArc
 50
266.0750220508916
 51
0.0
  0
ARC
  5
10BC2
330
D86E
100
AcDbEntity
  8
0
  6
Continuous
370
    15
100
AcDbCircle
 10
272.6960652497
 20
9.059545890030676
 30
0.0
 40
3.000000000005339
100
AcDbArc
 50
0.0
 51
44.4466449440826
  0
ARC
  5
10BC3
330
D86E
100
AcDbEntity
  8
0
  6
Continuous
370
    15
100
AcDbCircle
 10
244.8538544308738
 20
-18.25000000000045
 30
0.0
 40
42.00000000000001
100
AcDbArc
 50
44.44664494413787
 51
141.4181169786332
  0
ARC
  5
10BC4
330
D86E
100
AcDbEntity
  8
0
  6
Continuous
370
     0
100
AcDbCircle
 10
18.03597960382012
 20
-6.151385977498193
 30
0.0
 40
0.9999999999025266
100
AcDbArc
 50
47.82231890107082
 51
64.19126685457245
  0
ENDBLK
  5
D8C9
330
D86E
100
AcDbEntity
  8
0
100
AcDbBlockEnd
  0
BLOCK
  5
EC07
330
EC01
100
AcDbEntity
  8
0
100
AcDbBlockBegin
  2
A$C6D67221A
 70
     0
 10
0.0
 20
0.0
 30
0.0
  3
A$C6D67221A
  1

  0
LINE
  5
EC02
330
EC01
100
AcDbEntity
  8
LAFARGE99--S-2
100
AcDbLine
 10
0.0
 20
0.0
 30
0.0
 11
58.62180894121024
 21
-39.54090940355559
 31
0.0
  0
LINE
  5
EC03
330
EC01
100
AcDbEntity
  8
LAFARGE99--S-2
100
AcDbLine
 10
49.08135917238315
 20
9.540449768827556
 30
0.0
 11
9.540449768827102
 21
-49.08135917238269
 31
0.0
  0
LWPOLYLINE
  5
EC04
330
EC01
100
AcDbEntity
  8
0
  6
ByBlock
 62
     0
100
AcDbPolyline
 90
        4
 70
     1
 43
0.0
 10
9.540449768827102
 20
-49.08135917238269
 10
58.62180894121024
 20
-39.54090940355559
 10
49.08135917238315
 20
9.540449768827556
 10
0.0
 20
0.0
  0
ENDBLK
  5
EC08
330
EC01
100
AcDbEntity
  8
0
100
AcDbBlockEnd
  0
BLOCK
  5
F074
330
F06B
100
AcDbEntity
  8
0
100
AcDbBlockBegin
  2
A$C5D24607F
 70
     0
 10
0.0
 20
0.0
 30
0.0
  3
A$C5D24607F
  1

  0
LINE
  5
F06C
330
F06B
100
AcDbEntity
  8
LAFARGE99-S--1
 62
     2
100
AcDbLine
 10
68.9855522652067
 20
51.59481764172119
 30
0.0
 11
13.23892105315713
 21
40.75877023333624
 31
0.0
  0
LINE
  5
F06D
330
F06B
100
AcDbEntity
  8
LAFARGE99-S--1
 62
     2
100
AcDbLine
 10
11.62054212986663
 20
38.79902924316821
 30
0.0
 11
5.825656102390212
 21
11.60603824668419
 31
0.0
  0
LINE
  5
F06E
330
F06B
100
AcDbEntity
  8
LAFARGE99-S--1
 62
     2
100
AcDbLine
 10
5.825656102390212
 20
11.60603824668419
 30
0.0
 11
0.2270588728817984
 21
1.587825915724806
 31
0.0
  0
ARC
  5
F06F
330
F06B
100
AcDbEntity
  8
LAFARGE99-S--1
 62
     2
100
AcDbCircle
 10
1.099995510571716
 20
1.099992310301786
 30
0.0
 40
1.000000000000051
100
AcDbArc
 50
150.8017100673163
 51
287.5681403930549
  0
LINE
  5
F070
330
F06B
100
AcDbEntity
  8
LAFARGE99-S--1
 62
     2
100
AcDbLine
 10
1.401835328128981
 20
0.1466336555779435
 30
0.0
 11
4.71613755481394
 21
1.19596422437894
 31
0.0
  0
ARC
  5
F071
330
F06B
100
AcDbEntity
  8
LAFARGE99-S--1
 62
     2
100
AcDbCircle
 10
13.62053904391018
 20
38.79551586644084
 30
0.0
 40
1.999999999999999
100
AcDbArc
 50
100.9999999999987
 51
179.8993491190737
  0
ENDBLK
  5
F075
330
F06B
100
AcDbEntity
  8
0
100
AcDbBlockEnd
  0
BLOCK
  5
F4BF
330
F495
100
AcDbEntity
  8
0
100
AcDbBlockBegin
  2
A$C4CB44FE2
 70
     0
 10
0.0
 20
0.0
 30
0.0
  3
A$C4CB44FE2
  1

  0
LINE
  5
10BCD
330
F495
100
AcDbEntity
  8
0
  6
Continuous
370
    15
100
AcDbLine
 10
-78.02124935808575
 20
19.62030744215144
 30
0.0
 11
-78.02124935808575
 21
9.503503829179862
 31
0.0
  0
LINE
  5
10BCE
330
F495
100
AcDbEntity
  8
LAFARGE99--S-2
100
AcDbLine
 10
-78.02124935808575
 20
11.75124367228454
 30
0.0
 11
-71.99682800579037
 21
20.67318975108401
 31
0.0
  0
LINE
  5
10BCF
330
F495
100
AcDbEntity
  8
LAFARGE99--S-2
100
AcDbLine
 10
-71.60263050713613
 20
10.53517834729064
 30
0.0
 11
-63.35698549252321
 21
22.74667483852955
 31
0.0
  0
LINE
  5
10BD0
330
F495
100
AcDbEntity
  8
LAFARGE99--S-2
100
AcDbLine
 10
-63.09419787997569
 20
12.41405023464494
 30
0.0
 11
-54.09128369244797
 21
25.74703447263824
 31
0.0
  0
LINE
  5
10BD1
330
F495
100
AcDbEntity
  8
LAFARGE99--S-2
100
AcDbLine
 10
-54.05717060250469
 20
15.07575132530815
 30
0.0
 11
-43.9636992267342
 21
30.0238105821893
 31
0.0
  0
LINE
  5
10BD2
330
F495
100
AcDbEntity
  8
LAFARGE99--S-2
100
AcDbLine
 10
-44.33058414248576
 20
18.75866416147551
 30
0.0
 11
-32.49437758044063
 21
36.28765002563159
 31
0.0
  0
LINE
  5
10BD3
330
F495
100
AcDbEntity
  8
LAFARGE99--S-2
100
AcDbLine
 10
-34.15022811500344
 20
23.11359300986487
 30
0.0
 11
-18.30776593236251
 21
46.5756958548277
 31
0.0
  0
LINE
  5
10BD4
330
F495
100
AcDbEntity
  8
LAFARGE99--S-2
100
AcDbLine
 10
-29.80839027799567
 20
18.8218915133059
 30
0.0
 11
23.10962373415615
 21
97.19152072818497
 31
0.0
  0
LINE
  5
10BD5
330
F495
100
AcDbEntity
  8
LAFARGE99--S-2
100
AcDbLine
 10
-5.38782071296989
 20
44.26605199124333
 30
0.0
 11
34.29441876916298
 21
103.0339867424729
 31
0.0
  0
LINE
  5
10BD6
330
F495
100
AcDbEntity
  8
LAFARGE99--S-2
100
AcDbLine
 10
-21.60452806733399
 20
20.24970583441609
 30
0.0
 11
-15.41367075205007
 21
29.41813744278284
 31
0.0
  0
LINE
  5
10BD7
330
F495
100
AcDbEntity
  8
LAFARGE99--S-2
100
AcDbLine
 10
30.10628825238047
 20
86.109716364027
 30
0.0
 11
42.86279799305911
 21
105.0016373311177
 31
0.0
  0
LINE
  5
10BD8
330
F495
100
AcDbEntity
  8
LAFARGE99--S-2
100
AcDbLine
 10
40.3671078688092
 20
90.58380882330993
 30
0.0
 11
50.26549403351777
 21
105.242954069686
 31
0.0
  0
LINE
  5
10BD9
330
F495
100
AcDbEntity
  8
LAFARGE99--S-2
100
AcDbLine
 10
51.1363748923638
 20
95.81089316098314
 30
0.0
 11
56.89519333049842
 21
104.3394911089106
 31
0.0
  0
LINE
  5
10BDA
330
F495
100
AcDbEntity
  8
LAFARGE99--S-2
100
AcDbLine
 10
59.0383605281941
 20
96.79163939611431
 30
0.0
 11
62.9203982820763
 21
102.5407942925937
 31
0.0
  0
LINE
  5
10BDB
330
F495
100
AcDbEntity
  8
LAFARGE99--S-2
100
AcDbLine
 10
63.3590246593015
 20
92.46858042117242
 30
0.0
 11
68.42276042345691
 21
99.96778653627348
 31
0.0
  0
LINE
  5
10BDC
330
F495
100
AcDbEntity
  8
LAFARGE99--S-2
100
AcDbLine
 10
71.20331577737886
 20
93.36388320101788
 30
0.0
 11
72.99007744996299
 21
96.01001141254938
 31
0.0
  0
LINE
  5
10BDD
330
F495
100
AcDbEntity
  8
0
  6
Continuous
370
    15
100
AcDbLine
 10
-20.05321583125137
 20
20.55125038643496
 30
0.0
 11
-28.99902843958653
 21
18.81236056613852
 31
0.0
  0
LINE
  5
10BDE
330
F495
100
AcDbEntity
  8
0
  6
Continuous
370
    15
100
AcDbLine
 10
63.841436527513
 20
92.45017167450532
 30
0.0
 11
72.38743220231549
 21
93.51084850559278
 31
0.0
  0
LINE
  5
10BDF
330
F495
100
AcDbEntity
  8
0
  6
Continuous
370
    15
100
AcDbLine
 10
72.99187152174147
 20
96.00085771337695
 30
0.0
 11
73.24589052533537
 21
94.69404322830564
 31
0.0
  0
LINE
  5
10BE0
330
F495
100
AcDbEntity
  8
0
  6
Continuous
370
    15
100
AcDbLine
 10
47.01742175828662
 20
93.6342894988727
 30
0.0
 11
46.96452098787629
 21
92.59894584941594
 31
0.0
  0
LINE
  5
10BE1
330
F495
100
AcDbEntity
  8
0
  6
Continuous
370
    15
100
AcDbLine
 10
61.13141990762853
 20
97.05141715336322
 30
0.0
 11
48.76847845026691
 21
95.51700430471464
 31
0.0
  0
LINE
  5
10BE2
330
F495
100
AcDbEntity
  8
0
  6
Continuous
370
    15
100
AcDbLine
 10
-30.89006559078532
 20
19.46349687505289
 30
0.0
 11
-33.86652586984592
 21
22.88752274543254
 31
0.0
  0
LINE
  5
10BE3
330
F495
100
AcDbEntity
  8
0
  6
Continuous
370
    15
100
AcDbLine
 10
-12.53352163262828
 20
37.78269784473582
 30
0.0
 11
-17.78908709058302
 21
22.51942747340649
 31
0.0
  0
LINE
  5
10BE4
330
F495
100
AcDbEntity
  8
0
  6
Continuous
370
     0
100
AcDbLine
 10
46.08899264188611
 20
91.65758844649507
 30
0.0
 11
45.48405076595461
 21
91.58250675252157
 31
0.0
  0
LINE
  5
10BE5
330
F495
100
AcDbEntity
  8
0
  6
Continuous
370
    15
100
AcDbLine
 10
61.13141990762853
 20
97.05141715336322
 30
0.0
 11
62.22280157171975
 21
93.49831483284924
 31
0.0
  0
ARC
  5
10BE6
330
F495
100
AcDbEntity
  8
0
  6
Continuous
370
    15
100
AcDbCircle
 10
-95.63423155998515
 20
139.5663553970089
 30
0.0
 40
131.2499999999984
100
AcDbArc
 50
277.712024087034
 51
297.4739905297734
  0
ARC
  5
10BE7
330
F495
100
AcDbEntity
  8
0
  6
Continuous
370
    15
100
AcDbCircle
 10
-95.66147878925276
 20
138.3166523968973
 30
0.0
 40
120.000000000001
100
AcDbArc
 50
278.4532227128491
 51
332.4181169786298
  0
ARC
  5
10BE8
330
F495
100
AcDbEntity
  8
0
  6
Continuous
370
    15
100
AcDbCircle
 10
-34.62123545006855
 20
22.23146371644202
 30
0.0
 40
1.000000000000137
100
AcDbArc
 50
41.00000000001722
 51
117.4739905297654
  0
ARC
  5
10BE9
330
F495
100
AcDbEntity
  8
0
  6
Continuous
370
    15
100
AcDbCircle
 10
-29.38064643033964
 20
20.77561493303642
 30
0.0
 40
2.000000000002793
100
AcDbArc
 50
221.0000000000681
 51
280.9999999999999
  0
ARC
  5
10BEA
330
F495
100
AcDbEntity
  8
0
  6
Continuous
370
    15
100
AcDbCircle
 10
-20.6256428173809
 20
23.49613193677738
 30
0.0
 40
2.999999999999776
100
AcDbArc
 50
280.9999999999999
 51
341.000000000012
  0
ARC
  5
10BEB
330
F495
100
AcDbEntity
  8
0
  6
Continuous
370
     0
100
AcDbCircle
 10
-11.58800305700193
 20
37.45712969026044
 30
0.0
 40
1.000000000032847
100
AcDbArc
 50
129.4578378813534
 51
160.9999999995159
  0
ARC
  5
10BEC
330
F495
100
AcDbEntity
  8
0
  6
Continuous
370
    15
100
AcDbCircle
 10
-95.63423155996089
 20
139.56635539699
 30
0.0
 40
131.2499999999669
100
AcDbArc
 50
309.4578378808624
 51
329.6456009685913
  0
ARC
  5
10BED
330
F495
100
AcDbEntity
  8
0
  6
Continuous
370
    15
100
AcDbCircle
 10
50.1228657947176
 20
54.20703855135116
 30
0.0
 40
37.66223875618591
100
AcDbArc
 50
97.07502205083933
 51
149.6456009685912
  0
ARC
  5
10BEE
330
F495
100
AcDbEntity
  8
0
  6
Continuous
370
    15
100
AcDbCircle
 10
45.96582378145854
 20
92.64997417383119
 30
0.0
 40
0.9999999999996417
100
AcDbArc
 50
277.0750220508393
 51
357.075022050872
  0
ARC
  5
10BEF
330
F495
100
AcDbEntity
  8
0
  6
Continuous
370
    15
100
AcDbCircle
 10
49.01481617112228
 20
93.53223285004242
 30
0.0
 40
1.999999999999444
100
AcDbArc
 50
97.07502205083933
 51
177.075022050872
  0
ARC
  5
10BF0
330
F495
100
AcDbEntity
  8
0
  6
Continuous
370
    15
100
AcDbCircle
 10
63.65668323687073
 20
93.93875026550881
 30
0.0
 40
1.499999999999064
100
AcDbArc
 50
197.0750220508207
 51
277.0750220508648
  0
ARC
  5
10BF1
330
F495
100
AcDbEntity
  8
0
  6
Continuous
370
    15
100
AcDbCircle
 10
72.26426334188682
 20
94.5032342329298
 30
0.0
 40
1.000000000001313
100
AcDbArc
 50
277.0750220508902
 51
10.99999999999908
  0
ARC
  5
10BF2
330
F495
100
AcDbEntity
  8
0
  6
Continuous
370
    15
100
AcDbCircle
 10
70.04698997139342
 20
95.42843072724599
 30
0.0
 40
3.000000000005339
100
AcDbArc
 50
10.99999999999908
 51
55.44664494407908
  0
ARC
  5
10BF3
330
F495
100
AcDbEntity
  8
0
  6
Continuous
370
    15
100
AcDbCircle
 10
47.92722599981938
 20
63.30809383857786
 30
0.0
 40
42.00000000000001
100
AcDbArc
 50
55.44664494414182
 51
152.4181169786297
  0
ENDBLK
  5
F4C0
330
F495
100
AcDbEntity
  8
0
100
AcDbBlockEnd
  0
BLOCK
  5
F801
330
F7FE
100
AcDbEntity
  8
0
100
AcDbBlockBegin
  2
Ventilationsstuds
 70
     0
 10
0.0
 20
0.0
 30
0.0
  3
Ventilationsstuds
  1

  0
LINE
  5
F802
330
F7FE
100
AcDbEntity
  8
0
  6
HIDDEN2
 62
     0
 48
0.6
100
AcDbLine
 10
-129.7396013553022
 20
27.66506350946122
 30
0.0
 11
-2.76039864469817
 21
27.66506350946145
 31
0.0
  0
LINE
  5
F803
330
F7FE
100
AcDbEntity
  8
0
  6
ByBlock
 62
    30
100
AcDbLine
 10
-1.299038105674526
 20
-0.7499999999984084
 30
0.0
 11
-13.16782516470528
 21
6.102447403486507
 31
0.0
  0
LINE
  5
F804
330
F7FE
100
AcDbEntity
  8
0
  6
ByBlock
 62
    30
100
AcDbLine
 10
-13.10640646054537
 20
7.799038105675947
 30
0.0
 11
0.7500000000040928
 21
-0.2009618943253031
 31
0.0
  0
LINE
  5
F805
330
F7FE
100
AcDbEntity
  8
0
  6
ByBlock
 62
    30
100
AcDbLine
 10
-13.16782516470528
 20
6.102447403486507
 30
0.0
 11
-14.58134372647634
 21
4.755388378952829
 31
0.0
  0
LINE
  5
F806
330
F7FE
100
AcDbEntity
  8
0
  6
ByBlock
 62
    30
100
AcDbLine
 10
-14.58134372647634
 20
4.755388378952829
 30
0.0
 11
-15.54367313387922
 21
11.80111126056687
 31
0.0
  0
LINE
  5
F807
330
F7FE
100
AcDbEntity
  8
0
  6
ByBlock
 62
    30
100
AcDbLine
 10
-15.54367313387922
 20
11.80111126056687
 30
0.0
 11
-9.748118176144885
 21
10.24819698995173
 31
0.0
  0
LINE
  5
F808
330
F7FE
100
AcDbEntity
  8
0
  6
ByBlock
 62
    30
100
AcDbLine
 10
-12.60640646054537
 20
8.665063509460253
 30
0.0
 11
1.25
 21
0.6650635094613904
 31
0.0
  0
LINE
  5
F809
330
F7FE
100
AcDbEntity
  8
0
  6
ByBlock
 62
    30
100
AcDbLine
 10
-11.0482961300346
 20
9.49753889827906
 30
0.0
 11
0.700961894323882
 21
2.714101615135405
 31
0.0
  0
LINE
  5
F80A
330
F7FE
100
AcDbEntity
  8
0
  6
ByBlock
 62
    30
100
AcDbLine
 10
-9.748118176144885
 20
10.24819698995173
 30
0.0
 11
-11.0482961300346
 21
9.49753889827906
 31
0.0
  0
ARC
  5
F80B
330
F7FE
100
AcDbEntity
  8
0
  6
ByBlock
 62
    30
100
AcDbCircle
 10
-12.85640646054537
 20
8.2320508075681
 30
0.0
 40
0.4999999999999673
100
AcDbArc
 50
59.99999999999381
 51
239.9999999999938
  0
LINE
  5
F80C
330
F7FE
100
AcDbEntity
  8
0
  6
ByBlock
 62
    30
100
AcDbLine
 10
0.7499999999990905
 20
-0.2009618943224041
 30
0.0
 11
-1.299038105674526
 21
-0.7499999999984084
 31
0.0
  0
LINE
  5
F80D
330
F7FE
100
AcDbEntity
  8
0
  6
ByBlock
 62
    30
100
AcDbLine
 10
1.25
 20
0.6650635094613904
 30
0.0
 11
0.700961894323882
 21
2.714101615135405
 31
0.0
  0
LINE
  5
F80E
330
F7FE
100
AcDbEntity
  8
0
 62
     0
100
AcDbLine
 10
6.850664407829981
 20
0.6650635094613336
 30
0.0
 11
9.25
 21
0.6650635094613904
 31
0.0
  0
LINE
  5
F80F
330
F7FE
100
AcDbEntity
  8
0
 62
     0
100
AcDbLine
 10
1.867935616605564
 20
5.249836110192632
 30
0.0
 11
0.2292386300364342
 21
24.9141999490227
 31
0.0
  0
ARC
  5
F810
330
F7FE
100
AcDbEntity
  8
0
 62
     0
100
AcDbCircle
 10
-2.76039864469817
 20
24.66506350946145
 30
0.0
 40
3.0
100
AcDbArc
 50
4.763641690726718
 51
90.0
  0
ARC
  5
F811
330
F7FE
100
AcDbEntity
  8
0
 62
     0
100
AcDbCircle
 10
6.850664407829981
 20
5.665063509461333
 30
0.0
 40
5.0
100
AcDbArc
 50
184.7636416907267
 51
270.0
  0
LINE
  5
F812
330
F7FE
100
AcDbEntity
  8
0
 62
     8
100
AcDbLine
 10
-11.48790078842205
 20
4.711814126691479
 30
0.0
 11
-15.37759591647034
 21
4.711814126691479
 31
0.0
  0
LINE
  5
F813
330
F7FE
100
AcDbEntity
  8
0
 62
     8
100
AcDbLine
 10
-15.37759591647034
 20
4.711814126691479
 30
0.0
 11
-17.59678194194646
 21
27.66506350946139
 31
0.0
  0
LINE
  5
F814
330
F7FE
100
AcDbEntity
  8
0
 62
     8
100
AcDbLine
 10
-20.50480633864402
 20
0.6650635094613904
 30
0.0
 11
-23.11524382784921
 21
27.66506350946139
 31
0.0
  0
LINE
  5
F815
330
F7FE
100
AcDbEntity
  8
0
 62
     8
100
AcDbLine
 10
-11.48790078842205
 20
4.711814126691479
 30
0.0
 11
-15.50480633864401
 21
0.6650635094613904
 31
0.0
  0
LINE
  5
F816
330
F7FE
100
AcDbEntity
  8
0
 62
     8
100
AcDbLine
 10
-15.50480633864401
 20
0.6650635094613904
 30
0.0
 11
-20.50480633864402
 21
0.6650635094613904
 31
0.0
  0
LINE
  5
F817
330
F7FE
100
AcDbEntity
  8
0
 62
     8
100
AcDbLine
 10
-23.11524382784921
 20
27.66506350946139
 30
0.0
 11
-17.59678194194646
 21
27.66506350946139
 31
0.0
  0
LINE
  5
F818
330
F7FE
100
AcDbEntity
  8
0
  6
ByBlock
 62
    30
100
AcDbLine
 10
-131.2009618943258
 20
-0.7499999999984084
 30
0.0
 11
-119.3321748352949
 21
6.102447403486507
 31
0.0
  0
LINE
  5
F819
330
F7FE
100
AcDbEntity
  8
0
  6
ByBlock
 62
    30
100
AcDbLine
 10
-119.3935935394548
 20
7.799038105675947
 30
0.0
 11
-133.2500000000042
 21
-0.2009618943253031
 31
0.0
  0
LINE
  5
F81A
330
F7FE
100
AcDbEntity
  8
0
  6
ByBlock
 62
    30
100
AcDbLine
 10
-119.3321748352949
 20
6.102447403486507
 30
0.0
 11
-117.9186562735239
 21
4.755388378952829
 31
0.0
  0
LINE
  5
F81B
330
F7FE
100
AcDbEntity
  8
0
  6
ByBlock
 62
    30
100
AcDbLine
 10
-117.9186562735239
 20
4.755388378952829
 30
0.0
 11
-116.956326866121
 21
11.80111126056687
 31
0.0
  0
LINE
  5
F81C
330
F7FE
100
AcDbEntity
  8
0
  6
ByBlock
 62
    30
100
AcDbLine
 10
-116.956326866121
 20
11.80111126056687
 30
0.0
 11
-122.7518818238553
 21
10.24819698995173
 31
0.0
  0
LINE
  5
F81D
330
F7FE
100
AcDbEntity
  8
0
  6
ByBlock
 62
    30
100
AcDbLine
 10
-119.8935935394548
 20
8.665063509460253
 30
0.0
 11
-133.7500000000001
 21
0.6650635094613904
 31
0.0
  0
LINE
  5
F81E
330
F7FE
100
AcDbEntity
  8
0
  6
ByBlock
 62
    30
100
AcDbLine
 10
-121.4517038699656
 20
9.49753889827906
 30
0.0
 11
-133.200961894324
 21
2.714101615135405
 31
0.0
  0
LINE
  5
F81F
330
F7FE
100
AcDbEntity
  8
0
  6
ByBlock
 62
    30
100
AcDbLine
 10
-122.7518818238553
 20
10.24819698995173
 30
0.0
 11
-121.4517038699656
 21
9.49753889827906
 31
0.0
  0
ARC
  5
F820
330
F7FE
100
AcDbEntity
  8
0
  6
ByBlock
 62
    30
100
AcDbCircle
 10
-119.6435935394548
 20
8.2320508075681
 30
0.0
 40
0.4999999999999673
100
AcDbArc
 50
300.0000000000062
 51
120.0000000000061
  0
LINE
  5
F821
330
F7FE
100
AcDbEntity
  8
0
  6
ByBlock
 62
    30
100
AcDbLine
 10
-133.2499999999992
 20
-0.2009618943224041
 30
0.0
 11
-131.2009618943258
 21
-0.7499999999984084
 31
0.0
  0
LINE
  5
F822
330
F7FE
100
AcDbEntity
  8
0
  6
ByBlock
 62
    30
100
AcDbLine
 10
-133.7500000000001
 20
0.6650635094613904
 30
0.0
 11
-133.200961894324
 21
2.714101615135405
 31
0.0
  0
LINE
  5
F823
330
F7FE
100
AcDbEntity
  8
0
 62
     0
100
AcDbLine
 10
-139.3506644078303
 20
0.6650635094613336
 30
0.0
 11
-141.7500000000001
 21
0.6650635094613904
 31
0.0
  0
LINE
  5
F824
330
F7FE
100
AcDbEntity
  8
0
 62
     0
100
AcDbLine
 10
-134.3679356166059
 20
5.249836110192632
 30
0.0
 11
-132.7292386300365
 21
24.9141999490227
 31
0.0
  0
ARC
  5
F825
330
F7FE
100
AcDbEntity
  8
0
 62
     0
100
AcDbCircle
 10
-129.7396013553022
 20
24.66506350946145
 30
0.0
 40
3.0
100
AcDbArc
 50
90.0
 51
175.2363583092733
  0
ARC
  5
F826
330
F7FE
100
AcDbEntity
  8
0
 62
     0
100
AcDbCircle
 10
-139.3506644078303
 20
5.665063509461333
 30
0.0
 40
5.0
100
AcDbArc
 50
270.0
 51
355.2363583092733
  0
LINE
  5
F827
330
F7FE
100
AcDbEntity
  8
0
 62
     8
100
AcDbLine
 10
-121.0120992115782
 20
4.711814126691479
 30
0.0
 11
-117.1224040835299
 21
4.711814126691479
 31
0.0
  0
LINE
  5
F828
330
F7FE
100
AcDbEntity
  8
0
 62
     8
100
AcDbLine
 10
-117.1224040835299
 20
4.711814126691479
 30
0.0
 11
-114.9032180580537
 21
27.66506350946139
 31
0.0
  0
LINE
  5
F829
330
F7FE
100
AcDbEntity
  8
0
 62
     8
100
AcDbLine
 10
-111.9951936613562
 20
0.6650635094613904
 30
0.0
 11
-109.384756172151
 21
27.66506350946139
 31
0.0
  0
LINE
  5
F82A
330
F7FE
100
AcDbEntity
  8
0
 62
     8
100
AcDbLine
 10
-121.0120992115782
 20
4.711814126691479
 30
0.0
 11
-116.9951936613562
 21
0.6650635094613904
 31
0.0
  0
LINE
  5
F82B
330
F7FE
100
AcDbEntity
  8
0
 62
     8
100
AcDbLine
 10
-116.9951936613562
 20
0.6650635094613904
 30
0.0
 11
-111.9951936613562
 21
0.6650635094613904
 31
0.0
  0
LINE
  5
F82C
330
F7FE
100
AcDbEntity
  8
0
 62
     8
100
AcDbLine
 10
-109.384756172151
 20
27.66506350946139
 30
0.0
 11
-114.9032180580537
 21
27.66506350946139
 31
0.0
  0
ENDBLK
  5
F82D
330
F7FE
100
AcDbEntity
  8
0
100
AcDbBlockEnd
  0
BLOCK
  5
FD74
330
FD4E
100
AcDbEntity
  8
0
100
AcDbBlockBegin
  2
A$C28341222
 70
     0
 10
0.0
 20
0.0
 30
0.0
  3
A$C28341222
  1

  0
LINE
  5
10ACE
330
FD4E
100
AcDbEntity
  8
LAFARGE99--S-2
100
AcDbLine
 10
-69.99701751248671
 20
48.96159204030027
 30
0.0
 11
-67.17127721145681
 21
53.146409323851
 31
0.0
  0
LINE
  5
10ACF
330
FD4E
100
AcDbEntity
  8
LAFARGE99--S-2
100
AcDbLine
 10
-68.76711369759255
 20
40.06123090284563
 30
0.0
 11
-62.45371282447547
 21
49.41114500577123
 31
0.0
  0
LINE
  5
10AD0
330
FD4E
100
AcDbEntity
  8
LAFARGE99--S-2
100
AcDbLine
 10
-60.58921286124996
 20
41.45059738502368
 30
0.0
 11
-55.82324392650014
 21
48.50882179571726
 31
0.0
  0
LINE
  5
10AD1
330
FD4E
100
AcDbEntity
  8
LAFARGE99--S-2
100
AcDbLine
 10
-53.86362444128105
 20
40.68914268277057
 30
0.0
 11
-47.92125829066981
 21
49.4895680308482
 31
0.0
  0
LINE
  5
10AD2
330
FD4E
100
AcDbEntity
  8
LAFARGE99--S-2
100
AcDbLine
 10
-47.26367040336902
 20
39.74162808915116
 30
0.0
 11
-39.5377505149134
 21
51.18343081559306
 31
0.0
  0
LINE
  5
10AD3
330
FD4E
100
AcDbEntity
  8
LAFARGE99--S-2
100
AcDbLine
 10
-41.17028699278728
 20
38.04390105887615
 30
0.0
 11
-34.72336313191113
 21
47.59155778759259
 31
0.0
  0
LINE
  5
10AD4
330
FD4E
100
AcDbEntity
  8
LAFARGE99--S-2
100
AcDbLine
 10
-35.52236716412472
 20
35.68645887497269
 30
0.0
 11
-29.77510495757457
 21
44.19794246965785
 31
0.0
  0
LINE
  5
10AD5
330
FD4E
100
AcDbEntity
  8
LAFARGE99--S-2
100
AcDbLine
 10
-30.2682283627554
 20
32.74584149682005
 30
0.0
 11
-24.66051679923459
 21
41.05065573032788
 31
0.0
  0
LINE
  5
10AD6
330
FD4E
100
AcDbEntity
  8
LAFARGE99--S-2
100
AcDbLine
 10
-25.01002441656908
 20
29.81124444837906
 30
0.0
 11
-19.37854692979044
 21
38.15125513867906
 31
0.0
  0
LINE
  5
10AD7
330
FD4E
100
AcDbEntity
  8
LAFARGE99--S-2
100
AcDbLine
 10
-19.59553565592313
 20
27.10809945250821
 30
0.0
 11
-13.92687328785246
 21
35.50317958208462
 31
0.0
  0
LINE
  5
10AD8
330
FD4E
100
AcDbEntity
  8
LAFARGE99--S-2
100
AcDbLine
 10
-14.02188343242164
 20
24.64066968143288
 30
0.0
 11
-8.301814527223257
 21
33.11188099864194
 31
0.0
  0
LINE
  5
10AD9
330
FD4E
100
AcDbEntity
  8
LAFARGE99--S-2
100
AcDbLine
 10
-8.285037483950418
 20
22.41492380486534
 30
0.0
 11
-2.498183343769085
 21
30.98504159466893
 31
0.0
  0
LINE
  5
10ADA
330
FD4E
100
AcDbEntity
  8
LAFARGE99--S-2
100
AcDbLine
 10
-2.379673930428396
 20
20.43874629306902
 30
0.0
 11
0.0000000000001137
 21
23.96295571516021
 31
0.0
  0
LINE
  5
10ADB
330
FD4E
100
AcDbEntity
  8
0
  6
Continuous
370
    15
100
AcDbLine
 10
-59.59794345722224
 20
41.64328063821722
 30
0.0
 11
-68.33949672859109
 21
39.94409481098501
 31
0.0
  0
LINE
  5
10ADC
330
FD4E
100
AcDbEntity
  8
0
  6
Continuous
370
    15
100
AcDbLine
 10
-70.34249504765256
 20
51.7451444237754
 30
0.0
 11
-68.93109408994769
 21
40.37332397249429
 31
0.0
  0
LINE
  5
10ADD
330
FD4E
100
AcDbEntity
  8
0
  6
Continuous
370
    15
100
AcDbLine
 10
-64.88351616577967
 20
53.43035226374377
 30
0.0
 11
-69.47327818074416
 21
52.8606990115395
 31
0.0
  0
LINE
  5
10ADE
330
FD4E
100
AcDbEntity
  8
0
  6
Continuous
370
    15
100
AcDbLine
 10
-45.30740418675321
 20
50.56085146118994
 30
0.0
 11
-45.19657262243441
 21
51.35702185241825
 31
0.0
  0
LINE
  5
10ADF
330
FD4E
100
AcDbEntity
  8
0
  6
Continuous
370
    15
100
AcDbLine
 10
-60.26459622468156
 20
47.95758825188658
 30
0.0
 11
-46.17468477684548
 21
49.70634207689227
 31
0.0
  0
LINE
  5
10AE0
330
FD4E
100
AcDbEntity
  8
0
  6
Continuous
370
    15
100
AcDbLine
 10
-36.53592964175278
 20
48.92755292413358
 30
0.0
 11
-41.59805513744828
 21
52.73175626339162
 31
0.0
  0
LINE
  5
10AE1
330
FD4E
100
AcDbEntity
  8
0
  6
Continuous
370
    15
100
AcDbLine
 10
-43.04593043580439
 20
53.11768205638964
 30
0.0
 11
-43.46201144225569
 21
53.06604062100996
 31
0.0
  0
LINE
  5
10AE2
330
FD4E
100
AcDbEntity
  8
0
  6
Continuous
370
    15
100
AcDbLine
 10
-62.36431905920182
 20
49.19071908734895
 30
0.0
 11
-63.83365474851911
 21
52.81378684601259
 31
0.0
  0
LINE
  5
10AE3
330
FD4E
100
AcDbEntity
  8
0
  6
Continuous
370
    15
100
AcDbLine
 10
-58.32176718977734
 20
40.93733432145654
 30
0.0
 11
-58.65242488162306
 21
41.31771248376026
 31
0.0
  0
ARC
  5
10AE4
330
FD4E
100
AcDbEntity
  8
0
  6
Continuous
370
    15
100
AcDbCircle
 10
36.30728599419342
 20
145.8575711631383
 30
0.0
 40
121.2499999999961
100
AcDbArc
 50
233.0750220508363
 51
252.5759365433092
  0
ARC
  5
10AE5
330
FD4E
100
AcDbEntity
  8
0
  6
Continuous
370
    15
100
AcDbCircle
 10
-42.79959271494874
 20
51.13291060171696
 30
0.0
 40
2.00000000000021
100
AcDbArc
 50
53.07502205083629
 51
97.07502205083612
  0
ARC
  5
10AE6
330
FD4E
100
AcDbEntity
  8
0
  6
Continuous
370
    15
100
AcDbCircle
 10
-43.21567372139969
 20
51.08126916633636
 30
0.0
 40
2.000000000000419
100
AcDbArc
 50
97.07502205085223
 51
172.0750220508387
  0
ARC
  5
10AE7
330
FD4E
100
AcDbEntity
  8
0
  6
Continuous
370
    15
100
AcDbCircle
 10
-46.29785363727052
 20
50.69872780422883
 30
0.0
 40
0.9999999999995829
100
AcDbArc
 50
277.0750220506712
 51
352.0750220509441
  0
ARC
  5
10AE8
330
FD4E
100
AcDbEntity
  8
0
  6
Continuous
370
    15
100
AcDbCircle
 10
-60.51093394553731
 20
49.94235970655973
 30
0.0
 40
2.000000000000058
100
AcDbArc
 50
202.0750220508986
 51
277.0750220508361
  0
ARC
  5
10AE9
330
FD4E
100
AcDbEntity
  8
0
  6
Continuous
370
    15
100
AcDbCircle
 10
-64.76034730535201
 20
52.4379665364072
 30
0.0
 40
1.000000000000419
100
AcDbArc
 50
22.07502205084297
 51
97.07502205082318
  0
ARC
  5
10AEA
330
FD4E
100
AcDbEntity
  8
0
  6
Continuous
370
    15
100
AcDbCircle
 10
-69.35010932031627
 20
51.86831328420294
 30
0.0
 40
0.9999999999999973
100
AcDbArc
 50
97.07502205083612
 51
187.0750220508474
  0
ARC
  5
10AEB
330
FD4E
100
AcDbEntity
  8
0
  6
Continuous
370
    15
100
AcDbCircle
 10
-68.43490122627935
 20
40.43490840270851
 30
0.0
 40
0.4999999999999402
100
AcDbArc
 50
187.0750220508474
 51
281.0000000000044
  0
ARC
  5
10AEC
330
FD4E
100
AcDbEntity
  8
0
  6
Continuous
370
    15
100
AcDbCircle
 10
-59.40713446184571
 20
40.66165345476747
 30
0.0
 40
1.00000000000237
100
AcDbArc
 50
41.00000000010217
 51
101.0000000000043
  0
ARC
  5
10AED
330
FD4E
100
AcDbEntity
  8
0
  6
Continuous
370
    15
100
AcDbCircle
 10
-58.09535431570617
 20
41.13415203014847
 30
0.0
 40
0.3000000000000961
100
AcDbArc
 50
220.9999999987259
 51
270.4451143725103
  0
ARC
  5
10AEE
330
FD4E
100
AcDbEntity
  8
0
  6
Continuous
370
    15
100
AcDbCircle
 10
-57.70193262668579
 20
-9.506650111462022
 30
0.0
 40
50.34233033907056
100
AcDbArc
 50
58.82231890390418
 51
90.44511437249727
  0
ARC
  5
10AEF
330
FD4E
100
AcDbEntity
  8
0
  6
Continuous
370
    15
100
AcDbCircle
 10
36.3072859942356
 20
145.8575711634826
 30
0.0
 40
131.2500000003595
100
AcDbArc
 50
238.8223189039925
 51
254.1158696551197
  0
ARC
  5
10AF0
330
FD4E
100
AcDbEntity
  8
0
  6
Continuous
370
     0
100
AcDbCircle
 10
-45.09037245514941
 20
38.19674718204669
 30
0.0
 40
0.9999999999025266
100
AcDbArc
 50
58.8223189010729
 51
75.19126685456662
  0
ENDBLK
  5
FD75
330
FD4E
100
AcDbEntity
  8
0
100
AcDbBlockEnd
  0
BLOCK
  5
FDAF
330
FDAC
100
AcDbEntity
  8
0
100
AcDbBlockBegin
  2
A$C2E310B88
 70
     0
 10
0.0
 20
0.0
 30
0.0
  3
A$C2E310B88
  1

  0
ARC
  5
FDB0
330
FDAC
100
AcDbEntity
  8
LAFARGE09-C--
  6
HIDDEN2
 62
     8
 48
0.5
100
AcDbCircle
 10
-6.576376380974352
 20
-18.19462924934419
 30
0.0
 40
19.34666017237421
100
AcDbArc
 50
70.12781202862647
 51
166.9250017644112
  0
ARC
  5
FDB1
330
FDAC
100
AcDbEntity
  8
LAFARGE09-C--
  6
Continuous
 62
     8
100
AcDbCircle
 10
6.883378462852306
 20
18.06747199688266
 30
0.0
 40
19.33428155947346
100
AcDbArc
 50
249.1440687325976
 51
313.7512214142182
  0
LWPOLYLINE
  5
FDB2
330
FDAC
100
AcDbEntity
  8
LAFARGE09-C--
  6
Continuous
 62
     8
100
AcDbPolyline
 90
        3
 70
     1
 43
0.0
 10
30.39876546054006
 20
12.71033450998266
 10
15.94910145106587
 20
9.173959358315414
 10
24.55806717618907
 20
-0.9712217885971767
  0
ENDBLK
  5
FDB3
330
FDAC
100
AcDbEntity
  8
0
100
AcDbBlockEnd
  0
BLOCK
  5
106FF
330
106FE
100
AcDbEntity
  8
0
100
AcDbBlockBegin
  2
38x73 lægte
 70
     0
 10
0.0
 20
0.0
 30
0.0
  3
38x73 lægte
  1

  0
LINE
  5
10700
330
106FE
100
AcDbEntity
  8
LAFARGE99--S-2
100
AcDbLine
 10
0.0
 20
38.0
 30
0.0
 11
73.0
 21
0.0
 31
0.0
  0
LINE
  5
10701
330
106FE
100
AcDbEntity
  8
LAFARGE99--S-2
100
AcDbLine
 10
0.0
 20
0.0
 30
0.0
 11
73.0
 21
38.0
 31
0.0
  0
LWPOLYLINE
  5
10702
330
106FE
100
AcDbEntity
  8
0
100
AcDbPolyline
 90
        4
 70
     1
 43
0.0
 10
0.0
 20
0.0
 10
73.0
 20
0.0
 10
73.0
 20
38.0
 10
0.0
 20
38.0
  0
ENDBLK
  5
10703
330
106FE
100
AcDbEntity
  8
0
100
AcDbBlockEnd
  0
BLOCK
  5
1087F
330
1087D
100
AcDbEntity
  8
0
100
AcDbBlockBegin
  2
_Oblique
 70
     0
 10
0.0
 20
0.0
 30
0.0
  3
_Oblique
  1

  0
LINE
  5
1087E
330
1087D
100
AcDbEntity
  8
0
  6
ByBlock
 62
     0
370
    -2
100
AcDbLine
 10
-0.5
 20
-0.5
 30
0.0
 11
0.5
 21
0.5
 31
0.0
  0
ENDBLK
  5
10880
330
1087D
100
AcDbEntity
  8
0
100
AcDbBlockEnd
  0
BLOCK
  5
1090A
330
10908
100
AcDbEntity
  8
0
100
AcDbBlockBegin
  2
_ArchTick
 70
     0
 10
0.0
 20
0.0
 30
0.0
  3
_ArchTick
  1

  0
LWPOLYLINE
  5
10909
330
10908
100
AcDbEntity
  8
0
  6
ByBlock
 62
     0
100
AcDbPolyline
 90
        2
 70
     0
 43
0.15
 10
-0.5
 20
-0.5
 10
0.5
 20
0.5
  0
ENDBLK
  5
1090B
330
10908
100
AcDbEntity
  8
0
100
AcDbBlockEnd
  0
BLOCK
  5
10976
330
10973
100
AcDbEntity
  8
0
100
AcDbBlockBegin
  2
_Dot
 70
     0
 10
0.0
 20
0.0
 30
0.0
  3
_Dot
  1

  0
LWPOLYLINE
  5
10974
330
10973
100
AcDbEntity
  8
0
  6
ByBlock
 62
     0
100
AcDbPolyline
 90
        2
 70
     1
 43
0.5
 10
-0.25
 20
0.0
 42
1.0
 10
0.25
 20
0.0
 42
1.0
  0
LINE
  5
10975
330
10973
100
AcDbEntity
  8
0
  6
ByBlock
 62
     0
370
    -2
100
AcDbLine
 10
-0.5
 20
0.0
 30
0.0
 11
-1.0
 21
0.0
 31
0.0
  0
ENDBLK
  5
10977
330
10973
100
AcDbEntity
  8
0
100
AcDbBlockEnd
  0
BLOCK
  5
10E58
330
10E57
100
AcDbEntity
  8
0
100
AcDbBlockBegin
  2
skotrendebræt 1x6
 70
     0
 10
0.0
 20
0.0
 30
0.0
  3
skotrendebræt 1x6
  1

  0
LINE
  5
10E5A
330
10E57
100
AcDbEntity
  8
LAFARGE99--S-2
100
AcDbLine
 10
-1526.255335718999
 20
1330.325532310336
 30
0.0
 11
-1383.787286859874
 21
1277.133645590822
 31
0.0
  0
LINE
  5
10E5B
330
10E57
100
AcDbEntity
  8
LAFARGE99--S-2
100
AcDbLine
 10
-1531.037486165625
 20
1305.723501025171
 30
0.0
 11
-1379.01125820185
 21
1301.704183003848
 31
0.0
  0
LWPOLYLINE
  5
10E5C
330
10E57
100
AcDbEntity
  8
0
100
AcDbPolyline
 90
        4
 70
     1
 43
0.0
 10
-1531.037486165625
 20
1305.723501025171
 10
-1383.787286859874
 20
1277.133645590822
 10
-1379.01125820185
 20
1301.704183003848
 10
-1526.267261281209
 20
1330.264180611371
  0
ENDBLK
  5
10E59
330
10E57
100
AcDbEntity
  8
0
100
AcDbBlockEnd
  0
BLOCK
  5
10E73
330
10E72
100
AcDbEntity
  8
0
100
AcDbBlockBegin
  2
skotrendeblik
 70
     0
 10
0.0
 20
0.0
 30
0.0
  3
skotrendeblik
  1

  0
LWPOLYLINE
  5
10E75
330
10E72
100
AcDbEntity
  8
LAFARGE99-S--1
 62
     5
100
AcDbPolyline
 90
        3
 70
     0
 43
0.0
 10
-1522.395199212497
 20
1344.036155545824
 10
-1524.767423762404
 20
1331.689746492825
 10
-1379.011258201852
 20
1303.357617972442
  0
LINE
  5
10E76
330
10E72
100
AcDbEntity
  8
LAFARGE99-S--1
 62
     5
100
AcDbLine
 10
-1522.395199212497
 20
1344.036155545824
 30
0.0
 11
-1584.003298898802
 21
1356.58715883839
 31
0.0
  0
LINE
  5
10E77
330
10E72
100
AcDbEntity
  8
LAFARGE99-S--1
 62
     5
100
AcDbLine
 10
-1584.003298898802
 20
1356.58715883839
 30
0.0
 11
-1567.870967305317
 21
1360.909804060896
 31
0.0
  0
LWPOLYLINE
  5
10E78
330
10E72
100
AcDbEntity
  8
LAFARGE99-S--1
 62
     5
100
AcDbPolyline
 90
        3
 70
     0
 43
0.0
 10
-1235.627317191203
 20
1344.036155545824
 10
-1233.255092641296
 20
1331.689746492825
 10
-1379.011258201848
 20
1303.357617972442
  0
LINE
  5
10E79
330
10E72
100
AcDbEntity
  8
LAFARGE99-S--1
 62
     5
100
AcDbLine
 10
-1235.627317191203
 20
1344.036155545824
 30
0.0
 11
-1174.019217504898
 21
1356.58715883839
 31
0.0
  0
LINE
  5
10E7A
330
10E72
100
AcDbEntity
  8
LAFARGE99-S--1
 62
     5
100
AcDbLine
 10
-1174.019217504898
 20
1356.58715883839
 30
0.0
 11
-1190.151549098383
 21
1360.909804060896
 31
0.0
  0
ENDBLK
  5
10E74
330
10E72
100
AcDbEntity
  8
0
100
AcDbBlockEnd
  0
BLOCK
  5
10F92
330
10F91
100
AcDbEntity
  8
0
100
AcDbBlockBegin
  2
B&C dobbltvinget
 70
     0
 10
0.0
 20
0.0
 30
0.0
  3
B&C dobbltvinget
  1

  0
HATCH
  5
10F93
330
10F91
100
AcDbEntity
  8
A99--S-
100
AcDbHatch
 10
0.0
 20
0.0
 30
0.0
210
0.0
220
0.0
230
1.0
  2
ANSI31
 70
     0
 71
     1
 91
        1
 92
       33
 93
       57
 72
     2
 10
87.11487222658252
 20
35.70655595047356
 40
14.0
 50
27.03804700000707
 51
120.0098799999715
 73
     1
 72
     2
 10
89.11491722660503
 20
35.70655595047356
 40
25.0
 50
20.80614800003442
 51
92.29243899999643
 73
     1
 72
     1
 10
48.88298722659602
 20
42.49496095048743
 11
74.61121222659494
 21
57.35511595048956
 72
     1
 10
54.38454222659129
 20
32.96966595048798
 11
80.11276722659022
 21
47.82974095047757
 72
     2
 10
87.11494722660063
 20
35.70655595047356
 40
25.0
 50
87.70755900008053
 51
120.0098799999715
 73
     1
 72
     2
 10
138.1148572265847
 20
147.706755950483
 40
132.5
 50
266.4968789999255
 51
305.0283249999014
 73
     1
 72
     2
 10
134.1148422265869
 20
49.20661595049387
 40
34.0
 50
207.0379649999593
 51
263.0805269999197
 73
     1
 72
     1
 10
99.58473722660347
 20
42.07069095048427
 11
103.8308772266064
 21
33.75083595049
 72
     2
 10
138.1148572265847
 20
53.20655595047355
 40
27.0
 50
201.7398140000537
 51
270.0000010000991
 73
     1
 72
     2
 10
138.1148572265847
 20
147.706755950483
 40
121.499995
 50
270.0000010000991
 51
300.0098850000148
 73
     1
 72
     1
 10
198.882907226598
 20
42.49496095048743
 11
224.611132226597
 21
57.35511595048956
 72
     1
 10
214.1674072265778
 20
39.20661595049387
 11
225.7035122266134
 21
39.20661595049387
 72
     1
 10
261.1148872266094
 20
46.20658595048371
 11
261.1148872266094
 21
47.58094595048532
 72
     2
 10
239.1148422265869
 20
35.70655595047356
 40
25.0
 50
28.35763599996332
 51
92.29243899999643
 73
     1
 72
     2
 10
237.1148722265825
 20
35.70655595047356
 40
25.0
 50
87.70755900008053
 51
120.0098799999715
 73
     1
 72
     1
 10
257.6149022265781
 20
46.20658595048371
 11
261.1148872266094
 21
46.20658595048371
 72
     2
 10
257.6149022265781
 20
44.70657095048591
 40
1.5
 50
90.0000030000889
 51
165.2375209999674
 73
     1
 72
     1
 10
244.8648872266094
 20
46.70661595049387
 11
247.4372122265959
 21
46.70661595049387
 72
     2
 10
253.2148022266083
 20
43.70658595048371
 40
2.5
 50
205.4920199999878
 51
345.2375120001286
 73
     1
 72
     1
 10
256.1644022266009
 20
45.08880595049777
 11
255.6323272265763
 21
43.06953095049903
 72
     1
 10
250.9582572265972
 20
42.63069095048194
 11
249.693837226605
 21
45.28259095049361
 72
     2
 10
247.4372122265959
 20
44.20661595049387
 40
2.5
 50
25.49201300003132
 51
90.0000030000889
 73
     1
 72
     1
 10
240.1780722265867
 20
43.70658595048371
 11
240.3648422265869
 21
43.70658595048371
 72
     1
 10
241.9648022266083
 20
44.50660595049339
 11
242.8648422265869
 21
45.70655595047355
 72
     2
 10
244.8648872266094
 20
44.20661595049387
 40
2.5
 50
90.0000030000889
 51
143.1300969999363
 73
     1
 72
     2
 10
240.3648422265869
 20
45.70655595047355
 40
2.0
 50
270.0000010000991
 51
323.1301020000593
 73
     1
 72
     1
 10
236.9306972265804
 20
46.94374095049352
 11
238.5202072266002
 21
44.58801095049785
 72
     2
 10
240.1780722265867
 20
45.70655595047355
 40
2.0
 50
214.0077349997965
 51
270.0000010000991
 73
     1
 72
     1
 10
228.5320322265943
 20
47.30682095048905
 11
232.4198172266224
 21
48.52394095050477
 72
     2
 10
233.6148872266094
 20
44.70657095048591
 40
4.0
 50
34.00815699996883
 51
107.3832639999815
 73
     1
 72
     1
 10
226.1519672266186
 20
41.416395950484
 11
226.4397472266028
 21
44.70527595047679
 72
     2
 10
216.19003722657
 20
42.28797595047581
 40
10.0
 50
342.0527039999717
 51
354.9999020000321
 73
     1
 72
     2
 10
229.4283322265874
 20
44.44381595049708
 40
3.0
 50
107.3835169999953
 51
174.999336999993
 73
     1
 72
     2
 10
-60.38505277339936
 20
5.706555950473557
 40
28.0
 50
49.27037599990242
 51
90.0000030000889
 73
     1
 72
     1
 10
-60.88515777341308
 20
41.70661595049387
 11
-59.42985277340267
 21
41.70661595049387
 72
     2
 10
-59.42985277340267
 20
45.70655595047355
 40
4.0
 50
270.0000010000991
 51
330.7549979999373
 73
     1
 72
     2
 10
-60.88515777341308
 20
44.70657095048591
 40
3.0
 50
211.2732280000148
 51
270.0000010000991
 73
     1
 72
     1
 10
-65.02570777339497
 20
45.74478095048471
 11
-63.44924277340396
 21
43.14918595047856
 72
     2
 10
-66.73514777340097
 20
44.70657095048591
 40
2.0
 50
31.27322299982962
 51
108.0665090000473
 73
     1
 72
     1
 10
-70.88515777341308
 20
45.45661595049387
 11
-67.35534277342594
 21
46.60804595049194
 72
     1
 10
-70.88515777341308
 20
33.70658595048372
 11
-70.88515777341308
 21
45.45661595049387
 72
     1
 10
-70.88508277339497
 20
33.70658595048372
 11
-60.38505277339936
 21
33.70658595048372
 72
     2
 10
-11.88506777342627
 20
147.706755950483
 40
121.499995
 50
270.0000010000991
 51
300.0098850000148
 73
     1
 72
     2
 10
-11.88506777342627
 20
53.20655595047355
 40
27.0
 50
203.5781730000178
 51
270.0000010000991
 73
     1
 72
     1
 10
-42.28507777340928
 20
43.4066009504786
 11
-43.48510277343666
 21
41.80656095048834
 72
     2
 10
-46.68509777341023
 20
44.20661595049387
 40
4.0
 50
270.0000010000991
 51
323.1304580001108
 73
     1
 72
     1
 10
-40.68511277340803
 20
44.20661595049387
 11
-39.38056277340729
 21
44.20661595049387
 72
     2
 10
-47.42034277339917
 20
44.20661595049387
 40
4.0
 50
206.7170819999117
 51
270.0000010000991
 73
     1
 72
     1
 10
-47.42034277339917
 20
40.20660095048151
 11
-46.68509777341023
 21
40.20660095048151
 72
     2
 10
-39.38056277340729
 20
41.20658595048371
 40
3.0
 50
23.57817800001519
 51
90.0000030000889
 73
     1
 72
     2
 10
-40.68511277340803
 20
42.20657095048591
 40
2.0
 50
90.0000030000889
 51
143.1304529999539
 73
     1
 72
     1
 10
-50.99326777341412
 20
42.40821595049419
 11
-51.99866777340867
 21
44.40574595048746
 72
     2
 10
-53.78516777339609
 20
43.50654595048763
 40
2.0
 50
26.7170839999484
 51
150.7561270000429
 73
     1
 72
     1
 10
-55.93963277342481
 20
43.75244095048765
 11
-55.53023777340058
 21
44.48371595048593
 72
     2
 10
-15.88515777341308
 20
49.20661595049387
 40
34.0
 50
229.270380999957
 51
263.0805269999197
 73
     1
 72
     1
 10
-42.11516777341239
 20
26.92474095049329
 11
-38.06998777339686
 21
23.44169595047788
 72
     2
 10
-11.88514277341528
 20
147.706755950483
 40
132.5
 50
266.4968789999255
 51
300.0098850000148
 73
     1
 97
       57
330
10F99
330
10FC9
330
10FC4
330
10F9C
330
10FCA
330
10F9D
330
10F9A
330
10F9B
330
10FC8
330
10FC6
330
10FC0
330
10F97
330
10FCD
330
10FCC
330
10FCB
330
10FC2
330
10FC1
330
10FBF
330
10FBE
330
10FBD
330
10FBC
330
10FBB
330
10FBA
330
10FB9
330
10FB8
330
10FB7
330
10FB6
330
10FB5
330
10FB4
330
10FB2
330
10FC3
330
10F94
330
10FB3
330
10F95
330
10FAF
330
10FA7
330
10FA5
330
10FA4
330
10FA3
330
10FA2
330
10FA1
330
10F9F
330
10FC5
330
10FA0
330
10FB1
330
10FB0
330
10FAE
330
10FAD
330
10FAC
330
10FAB
330
10FAA
330
10FA9
330
10FA8
330
10FA6
330
10F98
330
10F96
330
10F9E
 75
     0
 76
     1
 52
0.0
 41
2.0
 77
     0
 78
     1
 53
45.0
 43
-18790.3699323069
 44
7404.922526444152
 45
-4.490128060534575
 46
4.490128060534576
 79
     0
 98
        1
 10
-18790.3699323069
 20
7404.922526444152
1001
ACAD
1010
0.0
1020
0.0
1030
0.0
  0
ARC
  5
10F94
102
{ACAD_REACTORS
330
10F93
102
}
330
10F91
100
AcDbEntity
  8
SX$17
 62
    32
100
AcDbCircle
 10
216.19003722657
 20
42.28797595047581
 30
0.0
 40
10.0
100
AcDbArc
 50
342.0527039999717
 51
354.9999020000321
  0
ARC
  5
10F95
102
{ACAD_REACTORS
330
10F93
102
}
330
10F91
100
AcDbEntity
  8
SX$17
 62
    32
100
AcDbCircle
 10
-60.38505277339936
 20
5.706555950473557
 30
0.0
 40
28.0
100
AcDbArc
 50
49.27037599990242
 51
90.0000030000889
  0
LINE
  5
10F96
102
{ACAD_REACTORS
330
10F93
102
}
330
10F91
100
AcDbEntity
  8
SX$17
 62
    32
100
AcDbLine
 10
-42.11516777341239
 20
26.92474095049329
 30
0.0
 11
-38.06998777339686
 21
23.44169595047788
 31
0.0
  0
LINE
  5
10F97
102
{ACAD_REACTORS
330
10F93
102
}
330
10F91
100
AcDbEntity
  8
SX$17
 62
    32
100
AcDbLine
 10
214.1674072265778
 20
39.20661595049387
 30
0.0
 11
225.7035122266134
 21
39.20661595049387
 31
0.0
  0
ARC
  5
10F98
102
{ACAD_REACTORS
330
10F93
102
}
330
10F91
100
AcDbEntity
  8
SX$17
 62
    32
100
AcDbCircle
 10
-15.88515777341308
 20
49.20661595049387
 30
0.0
 40
34.0
100
AcDbArc
 50
229.270380999957
 51
263.0805269999197
  0
ARC
  5
10F99
102
{ACAD_REACTORS
330
10F93
102
}
330
10F91
100
AcDbEntity
  8
SX$17
 62
    32
100
AcDbCircle
 10
87.11487222658252
 20
35.70655595047356
 30
0.0
 40
14.0
100
AcDbArc
 50
27.03804700000707
 51
120.0098799999715
  0
ARC
  5
10F9A
102
{ACAD_REACTORS
330
10F93
102
}
330
10F91
100
AcDbEntity
  8
SX$17
 62
    32
100
AcDbCircle
 10
134.1148422265869
 20
49.20661595049387
 30
0.0
 40
34.0
100
AcDbArc
 50
207.0379649999593
 51
263.0805269999197
  0
LINE
  5
10F9B
102
{ACAD_REACTORS
330
10F93
102
}
330
10F91
100
AcDbEntity
  8
SX$17
 62
    32
100
AcDbLine
 10
99.58473722660347
 20
42.07069095048427
 30
0.0
 11
103.8308772266064
 21
33.75083595049
 31
0.0
  0
LINE
  5
10F9C
102
{ACAD_REACTORS
330
10F93
102
}
330
10F91
100
AcDbEntity
  8
SX$17
 62
    32
100
AcDbLine
 10
54.38454222659129
 20
32.96966595048798
 30
0.0
 11
80.11276722659022
 21
47.82974095047757
 31
0.0
  0
ARC
  5
10F9D
102
{ACAD_REACTORS
330
10F93
102
}
330
10F91
100
AcDbEntity
  8
SX$17
 62
    32
100
AcDbCircle
 10
138.1148572265847
 20
147.706755950483
 30
0.0
 40
132.5
100
AcDbArc
 50
266.4968789999255
 51
305.0283249999014
  0
ARC
  5
10F9E
102
{ACAD_REACTORS
330
10F93
102
}
330
10F91
100
AcDbEntity
  8
SX$17
 62
    32
100
AcDbCircle
 10
-11.88514277341528
 20
147.706755950483
 30
0.0
 40
132.5
100
AcDbArc
 50
266.4968789999255
 51
300.0098850000148
  0
LINE
  5
10F9F
102
{ACAD_REACTORS
330
10F93
102
}
330
10F91
100
AcDbEntity
  8
SX$17
 62
    32
100
AcDbLine
 10
-70.88508277339497
 20
33.70658595048372
 30
0.0
 11
-60.38505277339936
 21
33.70658595048372
 31
0.0
  0
ARC
  5
10FA0
102
{ACAD_REACTORS
330
10F93
102
}
330
10F91
100
AcDbEntity
  8
SX$17
 62
    32
100
AcDbCircle
 10
-11.88506777342627
 20
53.20655595047355
 30
0.0
 40
27.0
100
AcDbArc
 50
203.5781730000178
 51
270.0000010000991
  0
LINE
  5
10FA1
102
{ACAD_REACTORS
330
10F93
102
}
330
10F91
100
AcDbEntity
  8
SX$17
 62
    32
100
AcDbLine
 10
-70.88515777341308
 20
33.70658595048372
 30
0.0
 11
-70.88515777341308
 21
45.45661595049387
 31
0.0
  0
LINE
  5
10FA2
102
{ACAD_REACTORS
330
10F93
102
}
330
10F91
100
AcDbEntity
  8
SX$17
 62
    32
100
AcDbLine
 10
-70.88515777341308
 20
45.45661595049387
 30
0.0
 11
-67.35534277342594
 21
46.60804595049194
 31
0.0
  0
ARC
  5
10FA3
102
{ACAD_REACTORS
330
10F93
102
}
330
10F91
100
AcDbEntity
  8
SX$17
 62
    32
100
AcDbCircle
 10
-66.73514777340097
 20
44.70657095048591
 30
0.0
 40
2.0
100
AcDbArc
 50
31.27322299982962
 51
108.0665090000473
  0
LINE
  5
10FA4
102
{ACAD_REACTORS
330
10F93
102
}
330
10F91
100
AcDbEntity
  8
SX$17
 62
    32
100
AcDbLine
 10
-65.02570777339497
 20
45.74478095048471
 30
0.0
 11
-63.44924277340396
 21
43.14918595047856
 31
0.0
  0
ARC
  5
10FA5
102
{ACAD_REACTORS
330
10F93
102
}
330
10F91
100
AcDbEntity
  8
SX$17
 62
    32
100
AcDbCircle
 10
-60.88515777341308
 20
44.70657095048591
 30
0.0
 40
3.0
100
AcDbArc
 50
211.2732280000148
 51
270.0000010000991
  0
LINE
  5
10FA6
102
{ACAD_REACTORS
330
10F93
102
}
330
10F91
100
AcDbEntity
  8
SX$17
 62
    32
100
AcDbLine
 10
-55.93963277342481
 20
43.75244095048765
 30
0.0
 11
-55.53023777340058
 21
44.48371595048593
 31
0.0
  0
ARC
  5
10FA7
102
{ACAD_REACTORS
330
10F93
102
}
330
10F91
100
AcDbEntity
  8
SX$17
 62
    32
100
AcDbCircle
 10
-59.42985277340267
 20
45.70655595047355
 30
0.0
 40
4.0
100
AcDbArc
 50
270.0000010000991
 51
330.7549979999373
  0
ARC
  5
10FA8
102
{ACAD_REACTORS
330
10F93
102
}
330
10F91
100
AcDbEntity
  8
SX$17
 62
    32
100
AcDbCircle
 10
-53.78516777339609
 20
43.50654595048763
 30
0.0
 40
2.0
100
AcDbArc
 50
26.7170839999484
 51
150.7561270000429
  0
LINE
  5
10FA9
102
{ACAD_REACTORS
330
10F93
102
}
330
10F91
100
AcDbEntity
  8
SX$17
 62
    32
100
AcDbLine
 10
-50.99326777341412
 20
42.40821595049419
 30
0.0
 11
-51.99866777340867
 21
44.40574595048746
 31
0.0
  0
ARC
  5
10FAA
102
{ACAD_REACTORS
330
10F93
102
}
330
10F91
100
AcDbEntity
  8
SX$17
 62
    32
100
AcDbCircle
 10
-40.68511277340803
 20
42.20657095048591
 30
0.0
 40
2.0
100
AcDbArc
 50
90.0000030000889
 51
143.1304529999539
  0
ARC
  5
10FAB
102
{ACAD_REACTORS
330
10F93
102
}
330
10F91
100
AcDbEntity
  8
SX$17
 62
    32
100
AcDbCircle
 10
-39.38056277340729
 20
41.20658595048371
 30
0.0
 40
3.0
100
AcDbArc
 50
23.57817800001519
 51
90.0000030000889
  0
LINE
  5
10FAC
102
{ACAD_REACTORS
330
10F93
102
}
330
10F91
100
AcDbEntity
  8
SX$17
 62
    32
100
AcDbLine
 10
-47.42034277339917
 20
40.20660095048151
 30
0.0
 11
-46.68509777341023
 21
40.20660095048151
 31
0.0
  0
ARC
  5
10FAD
102
{ACAD_REACTORS
330
10F93
102
}
330
10F91
100
AcDbEntity
  8
SX$17
 62
    32
100
AcDbCircle
 10
-47.42034277339917
 20
44.20661595049387
 30
0.0
 40
4.0
100
AcDbArc
 50
206.7170819999117
 51
270.0000010000991
  0
LINE
  5
10FAE
102
{ACAD_REACTORS
330
10F93
102
}
330
10F91
100
AcDbEntity
  8
SX$17
 62
    32
100
AcDbLine
 10
-40.68511277340803
 20
44.20661595049387
 30
0.0
 11
-39.38056277340729
 21
44.20661595049387
 31
0.0
  0
LINE
  5
10FAF
102
{ACAD_REACTORS
330
10F93
102
}
330
10F91
100
AcDbEntity
  8
SX$17
 62
    32
100
AcDbLine
 10
-60.88515777341308
 20
41.70661595049387
 30
0.0
 11
-59.42985277340267
 21
41.70661595049387
 31
0.0
  0
ARC
  5
10FB0
102
{ACAD_REACTORS
330
10F93
102
}
330
10F91
100
AcDbEntity
  8
SX$17
 62
    32
100
AcDbCircle
 10
-46.68509777341023
 20
44.20661595049387
 30
0.0
 40
4.0
100
AcDbArc
 50
270.0000010000991
 51
323.1304580001108
  0
LINE
  5
10FB1
102
{ACAD_REACTORS
330
10F93
102
}
330
10F91
100
AcDbEntity
  8
SX$17
 62
    32
100
AcDbLine
 10
-42.28507777340928
 20
43.4066009504786
 30
0.0
 11
-43.48510277343666
 21
41.80656095048834
 31
0.0
  0
ARC
  5
10FB2
102
{ACAD_REACTORS
330
10F93
102
}
330
10F91
100
AcDbEntity
  8
SX$17
 62
    32
100
AcDbCircle
 10
233.6148872266094
 20
44.70657095048591
 30
0.0
 40
4.0
100
AcDbArc
 50
34.00815699996883
 51
107.3832639999815
  0
ARC
  5
10FB3
102
{ACAD_REACTORS
330
10F93
102
}
330
10F91
100
AcDbEntity
  8
SX$17
 62
    32
100
AcDbCircle
 10
229.4283322265874
 20
44.44381595049708
 30
0.0
 40
3.0
100
AcDbArc
 50
107.3835169999953
 51
174.999336999993
  0
LINE
  5
10FB4
102
{ACAD_REACTORS
330
10F93
102
}
330
10F91
100
AcDbEntity
  8
SX$17
 62
    32
100
AcDbLine
 10
228.5320322265943
 20
47.30682095048905
 30
0.0
 11
232.4198172266224
 21
48.52394095050477
 31
0.0
  0
ARC
  5
10FB5
102
{ACAD_REACTORS
330
10F93
102
}
330
10F91
100
AcDbEntity
  8
SX$17
 62
    32
100
AcDbCircle
 10
240.1780722265867
 20
45.70655595047355
 30
0.0
 40
2.0
100
AcDbArc
 50
214.0077349997965
 51
270.0000010000991
  0
LINE
  5
10FB6
102
{ACAD_REACTORS
330
10F93
102
}
330
10F91
100
AcDbEntity
  8
SX$17
 62
    32
100
AcDbLine
 10
236.9306972265804
 20
46.94374095049352
 30
0.0
 11
238.5202072266002
 21
44.58801095049785
 31
0.0
  0
ARC
  5
10FB7
102
{ACAD_REACTORS
330
10F93
102
}
330
10F91
100
AcDbEntity
  8
SX$17
 62
    32
100
AcDbCircle
 10
240.3648422265869
 20
45.70655595047355
 30
0.0
 40
2.0
100
AcDbArc
 50
270.0000010000991
 51
323.1301020000593
  0
ARC
  5
10FB8
102
{ACAD_REACTORS
330
10F93
102
}
330
10F91
100
AcDbEntity
  8
SX$17
 62
    32
100
AcDbCircle
 10
244.8648872266094
 20
44.20661595049387
 30
0.0
 40
2.5
100
AcDbArc
 50
90.0000030000889
 51
143.1300969999363
  0
LINE
  5
10FB9
102
{ACAD_REACTORS
330
10F93
102
}
330
10F91
100
AcDbEntity
  8
SX$17
 62
    32
100
AcDbLine
 10
241.9648022266083
 20
44.50660595049339
 30
0.0
 11
242.8648422265869
 21
45.70655595047355
 31
0.0
  0
LINE
  5
10FBA
102
{ACAD_REACTORS
330
10F93
102
}
330
10F91
100
AcDbEntity
  8
SX$17
 62
    32
100
AcDbLine
 10
240.1780722265867
 20
43.70658595048371
 30
0.0
 11
240.3648422265869
 21
43.70658595048371
 31
0.0
  0
ARC
  5
10FBB
102
{ACAD_REACTORS
330
10F93
102
}
330
10F91
100
AcDbEntity
  8
SX$17
 62
    32
100
AcDbCircle
 10
247.4372122265959
 20
44.20661595049387
 30
0.0
 40
2.5
100
AcDbArc
 50
25.49201300003132
 51
90.0000030000889
  0
LINE
  5
10FBC
102
{ACAD_REACTORS
330
10F93
102
}
330
10F91
100
AcDbEntity
  8
SX$17
 62
    32
100
AcDbLine
 10
250.9582572265972
 20
42.63069095048194
 30
0.0
 11
249.693837226605
 21
45.28259095049361
 31
0.0
  0
LINE
  5
10FBD
102
{ACAD_REACTORS
330
10F93
102
}
330
10F91
100
AcDbEntity
  8
SX$17
 62
    32
100
AcDbLine
 10
256.1644022266009
 20
45.08880595049777
 30
0.0
 11
255.6323272265763
 21
43.06953095049903
 31
0.0
  0
ARC
  5
10FBE
102
{ACAD_REACTORS
330
10F93
102
}
330
10F91
100
AcDbEntity
  8
SX$17
 62
    32
100
AcDbCircle
 10
253.2148022266083
 20
43.70658595048371
 30
0.0
 40
2.5
100
AcDbArc
 50
205.4920199999878
 51
345.2375120001286
  0
LINE
  5
10FBF
102
{ACAD_REACTORS
330
10F93
102
}
330
10F91
100
AcDbEntity
  8
SX$17
 62
    32
100
AcDbLine
 10
244.8648872266094
 20
46.70661595049387
 30
0.0
 11
247.4372122265959
 21
46.70661595049387
 31
0.0
  0
LINE
  5
10FC0
102
{ACAD_REACTORS
330
10F93
102
}
330
10F91
100
AcDbEntity
  8
SX$17
 62
    32
100
AcDbLine
 10
198.882907226598
 20
42.49496095048743
 30
0.0
 11
224.611132226597
 21
57.35511595048956
 31
0.0
  0
ARC
  5
10FC1
102
{ACAD_REACTORS
330
10F93
102
}
330
10F91
100
AcDbEntity
  8
SX$17
 62
    32
100
AcDbCircle
 10
257.6149022265781
 20
44.70657095048591
 30
0.0
 40
1.5
100
AcDbArc
 50
90.0000030000889
 51
165.2375209999674
  0
LINE
  5
10FC2
102
{ACAD_REACTORS
330
10F93
102
}
330
10F91
100
AcDbEntity
  8
SX$17
 62
    32
100
AcDbLine
 10
257.6149022265781
 20
46.20658595048371
 30
0.0
 11
261.1148872266094
 21
46.20658595048371
 31
0.0
  0
LINE
  5
10FC3
102
{ACAD_REACTORS
330
10F93
102
}
330
10F91
100
AcDbEntity
  8
SX$17
 62
    32
100
AcDbLine
 10
226.1519672266186
 20
41.416395950484
 30
0.0
 11
226.4397472266028
 21
44.70527595047679
 31
0.0
  0
LINE
  5
10FC4
102
{ACAD_REACTORS
330
10F93
102
}
330
10F91
100
AcDbEntity
  8
SX$17
 62
    32
100
AcDbLine
 10
48.88298722659602
 20
42.49496095048743
 30
0.0
 11
74.61121222659494
 21
57.35511595048956
 31
0.0
  0
ARC
  5
10FC5
102
{ACAD_REACTORS
330
10F93
102
}
330
10F91
100
AcDbEntity
  8
SX$17
 62
    32
100
AcDbCircle
 10
-11.88506777342627
 20
147.706755950483
 30
0.0
 40
121.499995
100
AcDbArc
 50
270.0000010000991
 51
300.0098850000148
  0
ARC
  5
10FC6
102
{ACAD_REACTORS
330
10F93
102
}
330
10F91
100
AcDbEntity
  8
SX$17
 62
    32
100
AcDbCircle
 10
138.1148572265847
 20
147.706755950483
 30
0.0
 40
121.499995
100
AcDbArc
 50
270.0000010000991
 51
300.0098850000148
  0
LINE
  5
10FC7
330
10F91
100
AcDbEntity
  8
SX$17
 62
    32
100
AcDbLine
 10
112.4845922265995
 20
44.58679095049228
 30
0.0
 11
113.035207226585
 21
43.20594595048532
 31
0.0
  0
ARC
  5
10FC8
102
{ACAD_REACTORS
330
10F93
102
}
330
10F91
100
AcDbEntity
  8
SX$17
 62
    32
100
AcDbCircle
 10
138.1148572265847
 20
53.20655595047355
 30
0.0
 40
27.0
100
AcDbArc
 50
201.7398140000537
 51
270.0000010000991
  0
ARC
  5
10FC9
102
{ACAD_REACTORS
330
10F93
102
}
330
10F91
100
AcDbEntity
  8
SX$17
 62
    32
100
AcDbCircle
 10
89.11491722660503
 20
35.70655595047356
 30
0.0
 40
25.0
100
AcDbArc
 50
20.80614800003442
 51
92.29243899999643
  0
ARC
  5
10FCA
102
{ACAD_REACTORS
330
10F93
102
}
330
10F91
100
AcDbEntity
  8
SX$17
 62
    32
100
AcDbCircle
 10
87.11494722660063
 20
35.70655595047356
 30
0.0
 40
25.0
100
AcDbArc
 50
87.70755900008053
 51
120.0098799999715
  0
ARC
  5
10FCB
102
{ACAD_REACTORS
330
10F93
102
}
330
10F91
100
AcDbEntity
  8
SX$17
 62
    32
100
AcDbCircle
 10
237.1148722265825
 20
35.70655595047356
 30
0.0
 40
25.0
100
AcDbArc
 50
87.70755900008053
 51
120.0098799999715
  0
ARC
  5
10FCC
102
{ACAD_REACTORS
330
10F93
102
}
330
10F91
100
AcDbEntity
  8
SX$17
 62
    32
100
AcDbCircle
 10
239.1148422265869
 20
35.70655595047356
 30
0.0
 40
25.0
100
AcDbArc
 50
28.35763599996332
 51
92.29243899999643
  0
LINE
  5
10FCD
102
{ACAD_REACTORS
330
10F93
102
}
330
10F91
100
AcDbEntity
  8
SX$17
 62
    32
100
AcDbLine
 10
261.1148872266094
 20
46.20658595048371
 30
0.0
 11
261.1148872266094
 21
47.58094595048532
 31
0.0
  0
ENDBLK
  5
10FCE
330
10F91
100
AcDbEntity
  8
0
100
AcDbBlockEnd
  0
BLOCK
  5
110A6
330
110A5
100
AcDbEntity
  8
0
100
AcDbBlockBegin
  2
B&C dobbltvinget2
 70
     0
 10
0.0
 20
0.0
 30
0.0
  3
B&C dobbltvinget2
  1

  0
LINE
  5
110A8
330
110A5
100
AcDbEntity
  8
A99--S-
100
AcDbLine
 10
-42.76810431962599
 20
-62.5113563771481
 30
0.0
 11
-40.58237369785274
 21
-59.27087746962389
 31
0.0
1001
ACAD
1010
0.0
1020
0.0
1030
0.0
  0
LINE
  5
110A9
330
110A5
100
AcDbEntity
  8
A99--S-
100
AcDbLine
 10
-41.45187980390528
 20
-71.91562526166126
 30
0.0
 11
-27.76221487136627
 21
-51.61986236066059
 31
0.0
1001
ACAD
1010
0.0
1020
0.0
1030
0.0
  0
LINE
  5
110AA
330
110A5
100
AcDbEntity
  8
A99--S-
100
AcDbLine
 10
-29.69496074357085
 20
-65.84092793016134
 30
0.0
 11
-11.00887243679881
 21
-38.13766275235776
 31
0.0
1001
ACAD
1010
0.0
1020
0.0
1030
0.0
  0
LINE
  5
110AB
330
110A5
100
AcDbEntity
  8
A99--S-
100
AcDbLine
 10
-15.71731510959034
 20
-56.47386805883889
 30
0.0
 11
7.351359300216245
 21
-22.27315178353183
 31
0.0
1001
ACAD
1010
0.0
1020
0.0
1030
0.0
  0
LINE
  5
110AC
330
110A5
100
AcDbEntity
  8
A99--S-
100
AcDbLine
 10
2.260979251280332
 20
-41.17560253629835
 30
0.0
 11
18.09030435596923
 21
-17.70766297818773
 31
0.0
1001
ACAD
1010
0.0
1020
0.0
1030
0.0
  0
LINE
  5
110AD
330
110A5
100
AcDbEntity
  8
A99--S-
100
AcDbLine
 10
18.15367154481828
 20
-28.96936923463272
 30
0.0
 11
26.18659813745671
 21
-17.06006580545909
 31
0.0
1001
ACAD
1010
0.0
1020
0.0
1030
0.0
  0
LINE
  5
110AE
330
110A5
100
AcDbEntity
  8
A99--S-
100
AcDbLine
 10
25.89387828435065
 20
-28.84969281170106
 30
0.0
 11
32.85553427794912
 21
-18.52861335937996
 31
0.0
1001
ACAD
1010
0.0
1020
0.0
1030
0.0
  0
LINE
  5
110AF
330
110A5
100
AcDbEntity
  8
A99--S-
100
AcDbLine
 10
31.51036902754186
 20
-31.87855483315252
 30
0.0
 11
38.51755672751369
 21
-21.48997185013286
 31
0.0
1001
ACAD
1010
0.0
1020
0.0
1030
0.0
  0
LINE
  5
110B0
330
110A5
100
AcDbEntity
  8
A99--S-
100
AcDbLine
 10
35.76015194833599
 20
-36.93364452744754
 30
0.0
 11
43.2622140208623
 21
-25.81138011536041
 31
0.0
1001
ACAD
1010
0.0
1020
0.0
1030
0.0
  0
LINE
  5
110B1
330
110A5
100
AcDbEntity
  8
A99--S-
100
AcDbLine
 10
39.89000407531421
 20
-42.16653893558031
 30
0.0
 11
47.15997770787362
 21
-31.3883597858312
 31
0.0
1001
ACAD
1010
0.0
1020
0.0
1030
0.0
  0
LINE
  5
110B2
330
110A5
100
AcDbEntity
  8
A99--S-
100
AcDbLine
 10
44.51665646572928
 20
-46.66289666399279
 30
0.0
 11
51.61118781368987
 21
-36.1448213976164
 31
0.0
1001
ACAD
1010
0.0
1020
0.0
1030
0.0
  0
LINE
  5
110B3
330
110A5
100
AcDbEntity
  8
A99--S-
100
AcDbLine
 10
49.81953201499255
 20
-50.15671233109242
 30
0.0
 11
56.92416152057012
 21
-39.6236659303795
 31
0.0
1001
ACAD
1010
0.0
1020
0.0
1030
0.0
  0
LINE
  5
110B4
330
110A5
100
AcDbEntity
  8
A99--S-
100
AcDbLine
 10
55.80292251165246
 20
-52.64162309869243
 30
0.0
 11
63.10783694558541
 21
-41.81164208061909
 31
0.0
1001
ACAD
1010
0.0
1020
0.0
1030
0.0
  0
LINE
  5
110B5
330
110A5
100
AcDbEntity
  8
A99--S-
100
AcDbLine
 10
62.55447916239518
 20
-53.98768070891946
 30
0.0
 11
70.35969171840043
 21
-42.41597722244023
 31
0.0
1001
ACAD
1010
0.0
1020
0.0
1030
0.0
  0
LINE
  5
110B6
330
110A5
100
AcDbEntity
  8
A99--S-
100
AcDbLine
 10
70.37189078074971
 20
-53.75354334606436
 30
0.0
 11
79.04952906569997
 21
-40.88841552592476
 31
0.0
1001
ACAD
1010
0.0
1020
0.0
1030
0.0
  0
LINE
  5
110B7
330
110A5
100
AcDbEntity
  8
A99--S-
100
AcDbLine
 10
79.10879770753218
 20
-52.15619812820841
 30
0.0
 11
88.50096846685209
 21
-38.23173235083414
 31
0.0
1001
ACAD
1010
0.0
1020
0.0
1030
0.0
  0
LINE
  5
110B8
330
110A5
100
AcDbEntity
  8
A99--S-
100
AcDbLine
 10
88.36528992282365
 20
-49.78853604179221
 30
0.0
 11
98.76212920649415
 21
-34.37458792392317
 31
0.0
1001
ACAD
1010
0.0
1020
0.0
1030
0.0
  0
LINE
  5
110B9
330
110A5
100
AcDbEntity
  8
A99--S-
100
AcDbLine
 10
98.28733734246817
 20
-46.43414778701298
 30
0.0
 11
110.2269159683646
 21
-28.73299453576965
 31
0.0
1001
ACAD
1010
0.0
1020
0.0
1030
0.0
  0
LINE
  5
110BA
330
110A5
100
AcDbEntity
  8
A99--S-
100
AcDbLine
 10
109.1255498883947
 20
-41.72148887529601
 30
0.0
 11
123.8807185966452
 21
-19.8460516646237
 31
0.0
1001
ACAD
1010
0.0
1020
0.0
1030
0.0
  0
LINE
  5
110BB
330
110A5
100
AcDbEntity
  8
A99--S-
100
AcDbLine
 10
121.386528712228
 20
-34.89949221263942
 30
0.0
 11
141.7316690095704
 21
-4.736581308883614
 31
0.0
1001
ACAD
1010
0.0
1020
0.0
1030
0.0
  0
LINE
  5
110BC
330
110A5
100
AcDbEntity
  8
A99--S-
100
AcDbLine
 10
136.5024915924687
 20
-23.84480762222302
 30
0.0
 11
158.4526763699841
 21
8.697679580564908
 31
0.0
1001
ACAD
1010
0.0
1020
0.0
1030
0.0
  0
LINE
  5
110BD
330
110A5
100
AcDbEntity
  8
A99--S-
100
AcDbLine
 10
150.9536970132567
 20
-13.77566649472283
 30
0.0
 11
167.9303604526612
 21
11.39327209611565
 31
0.0
1001
ACAD
1010
0.0
1020
0.0
1030
0.0
  0
LINE
  5
110BE
330
110A5
100
AcDbEntity
  8
A99--S-
100
AcDbLine
 10
166.4360400715159
 20
-2.177800952742472
 30
0.0
 11
175.5295060347407
 21
11.30381675283388
 31
0.0
1001
ACAD
1010
0.0
1020
0.0
1030
0.0
  0
LINE
  5
110BF
330
110A5
100
AcDbEntity
  8
A99--S-
100
AcDbLine
 10
174.4693582611253
 20
-1.623568934501236
 30
0.0
 11
181.8763494455406
 21
9.35774708963072
 31
0.0
1001
ACAD
1010
0.0
1020
0.0
1030
0.0
  0
LINE
  5
110C0
330
110A5
100
AcDbEntity
  8
A99--S-
100
AcDbLine
 10
180.9999945229456
 20
-3.297154490491266
 30
0.0
 11
187.2661572261113
 21
5.992813755572569
 31
0.0
1001
ACAD
1010
0.0
1020
0.0
1030
0.0
  0
ARC
  5
110C1
330
110A5
100
AcDbEntity
  8
SX$17
 62
    32
100
AcDbCircle
 10
147.6796726659033
 20
-11.27303948433859
 30
0.0
 40
10.0
100
AcDbArc
 50
353.0527039999772
 51
5.999902000033585
  0
LINE
  5
110C2
330
110A5
100
AcDbEntity
  8
SX$17
 62
    32
100
AcDbLine
 10
146.2821552818443
 20
-14.68372222062612
 30
0.0
 11
157.6063095409859
 21
-12.48252961501111
 31
0.0
  0
ARC
  5
110C3
330
110A5
100
AcDbEntity
  8
SX$17
 62
    32
100
AcDbCircle
 10
22.23177613227472
 20
-42.36224282373632
 30
0.0
 40
14.0
100
AcDbArc
 50
38.03804700000871
 51
131.0098799999721
  0
ARC
  5
110C4
330
110A5
100
AcDbEntity
  8
SX$17
 62
    32
100
AcDbCircle
 10
65.79229141937685
 20
-20.14219989111348
 30
0.0
 40
34.0
100
AcDbArc
 50
218.0379649999631
 51
274.0805269999225
  0
LINE
  5
110C5
330
110A5
100
AcDbEntity
  8
SX$17
 62
    32
100
AcDbLine
 10
33.25820038442498
 20
-33.73567249545999
 30
0.0
 11
39.01383000737997
 21
-41.0924666181686
 31
0.0
  0
LINE
  5
110C6
330
110A5
100
AcDbEntity
  8
SX$17
 62
    32
100
AcDbLine
 10
-9.374982287575903
 20
-51.29408983146936
 30
0.0
 11
13.04510677231269
 21
-31.79785949833718
 31
0.0
  0
ARC
  5
110C7
330
110A5
100
AcDbEntity
  8
SX$17
 62
    32
100
AcDbCircle
 10
50.92410211972605
 20
77.31145394991722
 30
0.0
 40
132.5
100
AcDbArc
 50
277.4968789999237
 51
316.0283249998939
  0
ARC
  5
110C8
330
110A5
100
AcDbEntity
  8
SX$17
 62
    32
100
AcDbCircle
 10
-96.31997539742361
 20
48.69010464343546
 30
0.0
 40
132.5
100
AcDbArc
 50
294.462578623059
 51
311.0098850000156
  0
ARC
  5
110C9
330
110A5
100
AcDbEntity
  8
SX$17
 62
    32
100
AcDbCircle
 10
164.3228894112653
 20
-5.574062763483652
 30
0.0
 40
4.0
100
AcDbArc
 50
45.00815699996539
 51
118.3832639999738
  0
ARC
  5
110CA
330
110A5
100
AcDbEntity
  8
SX$17
 62
    32
100
AcDbCircle
 10
160.2633892358231
 20
-6.630822567702352
 30
0.0
 40
3.0
100
AcDbArc
 50
118.383516999994
 51
185.9993370000007
  0
LINE
  5
110CB
330
110A5
100
AcDbEntity
  8
SX$17
 62
    32
100
AcDbLine
 10
158.8372696834992
 20
-3.991441135918194
 30
0.0
 11
162.4213876784711
 21
-2.054858708289657
 31
0.0
  0
ARC
  5
110CC
330
110A5
100
AcDbEntity
  8
SX$17
 62
    32
100
AcDbCircle
 10
170.5746840839997
 20
-3.340135568139885
 30
0.0
 40
2.0
100
AcDbArc
 50
225.0077349997868
 51
281.0000010001034
  0
LINE
  5
110CD
330
110A5
100
AcDbEntity
  8
SX$17
 62
    32
100
AcDbLine
 10
167.1509064821964
 20
-2.745309502528698
 30
0.0
 11
169.1607071812555
 21
-4.754465301142772
 31
0.0
  0
ARC
  5
110CE
330
110A5
100
AcDbEntity
  8
SX$17
 62
    32
100
AcDbCircle
 10
170.7580225930526
 20
-3.304498172073181
 30
0.0
 40
2.0
100
AcDbArc
 50
281.0000010001034
 51
334.1301020000661
  0
ARC
  5
110CF
330
110A5
100
AcDbEntity
  8
SX$17
 62
    32
100
AcDbCircle
 10
175.4615911363337
 20
-3.91823098399027
 30
0.0
 40
2.5
100
AcDbArc
 50
101.000003000088
 51
154.1300969999385
  0
LINE
  5
110D0
330
110A5
100
AcDbEntity
  8
SX$17
 62
    32
100
AcDbLine
 10
172.5575480755008
 20
-4.177114950585064
 30
0.0
 11
173.2120905516717
 21
-2.827475683631973
 31
0.0
  0
LINE
  5
110D1
330
110A5
100
AcDbEntity
  8
SX$17
 62
    32
100
AcDbLine
 10
170.9562963504811
 20
-5.303360486209612
 30
0.0
 11
171.1396348595338
 21
-5.267723090143135
 31
0.0
  0
ARC
  5
110D2
330
110A5
100
AcDbEntity
  8
SX$17
 62
    32
100
AcDbCircle
 10
177.9866552809824
 20
-3.427408234960921
 30
0.0
 40
2.5
100
AcDbArc
 50
36.49201300003778
 51
101.000003000088
  0
LINE
  5
110D3
330
110A5
100
AcDbEntity
  8
SX$17
 62
    32
100
AcDbLine
 10
181.7437094331672
 20
-4.302531994921537
 30
0.0
 11
179.9965140150386
 21
-1.940617577057764
 31
0.0
  0
LINE
  5
110D4
330
110A5
100
AcDbEntity
  8
SX$17
 62
    32
100
AcDbLine
 10
186.3851724324679
 20
-0.896200193630193
 30
0.0
 11
186.2481689829497
 21
-2.979900120704996
 31
0.0
  0
ARC
  5
110D5
330
110A5
100
AcDbEntity
  8
SX$17
 62
    32
100
AcDbCircle
 10
183.7535049017699
 20
-2.815835131910262
 30
0.0
 40
2.5
100
AcDbArc
 50
216.4920199999849
 51
356.2375120001345
  0
LINE
  5
110D6
330
110A5
100
AcDbEntity
  8
SX$17
 62
    32
100
AcDbLine
 10
174.9845686478922
 20
-1.464163025371135
 30
0.0
 11
177.5096327925409
 21
-0.9733402763417871
 31
0.0
  0
LINE
  5
110D7
330
110A5
100
AcDbEntity
  8
SX$17
 62
    32
100
AcDbLine
 10
130.651028790558
 20
-14.37221346990736
 30
0.0
 11
153.0711025857247
 21
5.124095393412062
 31
0.0
  0
ARC
  5
110D8
330
110A5
100
AcDbEntity
  8
SX$17
 62
    32
100
AcDbCircle
 10
187.8819565383865
 20
-0.9946440123176216
 30
0.0
 40
1.5
100
AcDbArc
 50
101.000003000088
 51
176.2375209999574
  0
LINE
  5
110D9
330
110A5
100
AcDbEntity
  8
SX$17
 62
    32
100
AcDbLine
 10
187.595740183187
 20
0.477811487259487
 30
0.0
 11
191.0314206008768
 21
1.145640108948327
 31
0.0
  0
LINE
  5
110DA
330
110A5
100
AcDbEntity
  8
SX$17
 62
    32
100
AcDbLine
 10
157.6248792577426
 20
-10.22778024955914
 30
0.0
 11
157.2798240398669
 21
-6.944415225782449
 31
0.0
  0
LINE
  5
110DB
330
110A5
100
AcDbEntity
  8
SX$17
 62
    32
100
AcDbLine
 10
-16.59297019641872
 20
-42.9935475116697
 30
0.0
 11
5.827103598747726
 21
-23.4972386483505
 31
0.0
  0
ARC
  5
110DC
330
110A5
100
AcDbEntity
  8
SX$17
 62
    32
100
AcDbCircle
 10
-96.31990177539547
 20
48.69011895410813
 30
0.0
 40
121.499995
100
AcDbArc
 50
296.0049430000528
 51
311.0098850000156
  0
ARC
  5
110DD
330
110A5
100
AcDbEntity
  8
SX$17
 62
    32
100
AcDbCircle
 10
50.92410211972605
 20
77.31145394991722
 30
0.0
 40
121.499995
100
AcDbArc
 50
281.0000010001034
 51
311.0098850000156
  0
LINE
  5
110DE
330
110A5
100
AcDbEntity
  8
SX$17
 62
    32
100
AcDbLine
 10
45.44095420168605
 20
-28.80439196612724
 30
0.0
 11
46.24493050050796
 21
-30.05480465927531
 31
0.0
  0
ARC
  5
110DF
330
110A5
100
AcDbEntity
  8
SX$17
 62
    32
100
AcDbCircle
 10
68.95559034461053
 20
-15.45251121133287
 30
0.0
 40
27.0
100
AcDbArc
 50
212.7398140000497
 51
281.0000010001034
  0
ARC
  5
110E0
330
110A5
100
AcDbEntity
  8
SX$17
 62
    32
100
AcDbCircle
 10
24.19507467241533
 20
-41.98061624657429
 30
0.0
 40
25.0
100
AcDbArc
 50
31.80614800003797
 51
103.2924389999982
  0
ARC
  5
110E1
330
110A5
100
AcDbEntity
  8
SX$17
 62
    32
100
AcDbCircle
 10
22.23184975433128
 20
-42.3622285130582
 30
0.0
 40
25.0
100
AcDbArc
 50
98.7075590000753
 51
131.0098799999721
  0
ARC
  5
110E2
330
110A5
100
AcDbEntity
  8
SX$17
 62
    32
100
AcDbCircle
 10
169.4758536494241
 20
-13.74089351725456
 30
0.0
 40
25.0
100
AcDbArc
 50
98.7075590000753
 51
131.0098799999721
  0
ARC
  5
110E3
330
110A5
100
AcDbEntity
  8
SX$17
 62
    32
100
AcDbCircle
 10
171.4390785675084
 20
-13.35928125077066
 30
0.0
 40
25.0
100
AcDbArc
 50
39.35763599996285
 51
103.2924389999982
  0
LINE
  5
110E4
330
110A5
100
AcDbEntity
  8
SX$17
 62
    32
100
AcDbLine
 10
191.0314206008768
 20
1.145640108948327
 30
0.0
 11
190.7691803499908
 21
2.494749244793183
 31
0.0
  0
LINE
  5
110E5
330
110A5
100
AcDbEntity
  8
SX$17
 62
    32
100
AcDbLine
 10
-43.04838866949762
 20
-60.50875776359522
 30
0.0
 11
-41.4518798039021
 21
-71.91562526165739
 31
0.0
  0
ENDBLK
  5
110A7
330
110A5
100
AcDbEntity
  8
0
100
AcDbBlockEnd
  0
BLOCK
  5
110EB
330
110EA
100
AcDbEntity
  8
0
100
AcDbBlockBegin
  2
B&C dobbltvinget3
 70
     0
 10
0.0
 20
0.0
 30
0.0
  3
B&C dobbltvinget3
  1

  0
LINE
  5
110ED
330
110EA
100
AcDbEntity
  8
A99--S-
100
AcDbLine
 10
-0.5832426737189281
 20
3.000523439343623
 30
0.0
 11
4.983453094738138
 21
11.25348930924406
 31
0.0
1001
ACAD
1010
0.0
1020
0.0
1030
0.0
  0
LINE
  5
110EE
330
110EA
100
AcDbEntity
  8
A99--S-
100
AcDbLine
 10
5.814740083417632
 20
1.13027097497229
 30
0.0
 11
15.08600822028063
 21
14.87549124330121
 31
0.0
1001
ACAD
1010
0.0
1020
0.0
1030
0.0
  0
LINE
  5
110EF
330
110EA
100
AcDbEntity
  8
A99--S-
100
AcDbLine
 10
14.39111427927935
 20
2.489616631798298
 30
0.0
 11
20.06564250229155
 21
10.90245068996023
 31
0.0
1001
ACAD
1010
0.0
1020
0.0
1030
0.0
  0
LINE
  5
110F0
330
110EA
100
AcDbEntity
  8
A99--S-
100
AcDbLine
 10
21.63341208863392
 20
1.871112708974351
 30
0.0
 11
31.10095609977259
 21
15.90732392756558
 31
0.0
1001
ACAD
1010
0.0
1020
0.0
1030
0.0
  0
LINE
  5
110F1
330
110EA
100
AcDbEntity
  8
A99--S-
100
AcDbLine
 10
27.84404980123134
 20
-0.2768902060736309
 30
0.0
 11
35.43684151855348
 21
10.97988643607618
 31
0.0
1001
ACAD
1010
0.0
1020
0.0
1030
0.0
  0
LINE
  5
110F2
330
110EA
100
AcDbEntity
  8
A99--S-
100
AcDbLine
 10
33.41016821872097
 20
-3.380432271502513
 30
0.0
 11
40.49997563438217
 21
7.130639477228896
 31
0.0
1001
ACAD
1010
0.0
1020
0.0
1030
0.0
  0
LINE
  5
110F3
330
110EA
100
AcDbEntity
  8
A99--S-
100
AcDbLine
 10
39.19310553421008
 20
-6.162527101521163
 30
0.0
 11
46.41519965705708
 21
4.544667755937325
 31
0.0
1001
ACAD
1010
0.0
1020
0.0
1030
0.0
  0
LINE
  5
110F4
330
110EA
100
AcDbEntity
  8
A99--S-
100
AcDbLine
 10
45.70106202564772
 20
-7.869736799853171
 30
0.0
 11
53.31197284729376
 21
3.413902519148678
 31
0.0
1001
ACAD
1010
0.0
1020
0.0
1030
0.0
  0
LINE
  5
110F5
330
110EA
100
AcDbEntity
  8
A99--S-
100
AcDbLine
 10
53.12019983645666
 20
-8.226064638851539
 30
0.0
 11
61.60791442595462
 21
4.357489723414573
 31
0.0
1001
ACAD
1010
0.0
1020
0.0
1030
0.0
  0
LINE
  5
110F6
330
110EA
100
AcDbEntity
  8
A99--S-
100
AcDbLine
 10
61.70705744659233
 20
-6.851176681203696
 30
0.0
 11
70.86349952914668
 21
6.723806960839056
 31
0.0
1001
ACAD
1010
0.0
1020
0.0
1030
0.0
  0
LINE
  5
110F7
330
110EA
100
AcDbEntity
  8
A99--S-
100
AcDbLine
 10
70.79714209996462
 20
-4.730223950958361
 30
0.0
 11
80.85516425935736
 21
10.18140712299441
 31
0.0
1001
ACAD
1010
0.0
1020
0.0
1030
0.0
  0
LINE
  5
110F8
330
110EA
100
AcDbEntity
  8
A99--S-
100
AcDbLine
 10
80.50184610817984
 20
-1.698060554726225
 30
0.0
 11
91.90136233692816
 21
15.20241726594372
 31
0.0
1001
ACAD
1010
0.0
1020
0.0
1030
0.0
  0
LINE
  5
110F9
330
110EA
100
AcDbEntity
  8
A99--S-
100
AcDbLine
 10
91.03185623087563
 20
2.557669473906344
 30
0.0
 11
104.7215211634137
 21
22.85343237490429
 31
0.0
1001
ACAD
1010
0.0
1020
0.0
1030
0.0
  0
LINE
  5
110FA
330
110EA
100
AcDbEntity
  8
A99--S-
100
AcDbLine
 10
102.78877529121
 20
8.632366805405354
 30
0.0
 11
121.474863597983
 21
36.33563198320985
 31
0.0
1001
ACAD
1010
0.0
1020
0.0
1030
0.0
  0
LINE
  5
110FB
330
110EA
100
AcDbEntity
  8
A99--S-
100
AcDbLine
 10
116.7664209251887
 20
17.99942667672508
 30
0.0
 11
139.8350953349953
 21
52.20014295203213
 31
0.0
1001
ACAD
1010
0.0
1020
0.0
1030
0.0
  0
LINE
  5
110FC
330
110EA
100
AcDbEntity
  8
A99--S-
100
AcDbLine
 10
134.7447152860594
 20
33.29769219926561
 30
0.0
 11
150.574040390751
 21
56.76563175738079
 31
0.0
1001
ACAD
1010
0.0
1020
0.0
1030
0.0
  0
LINE
  5
110FD
330
110EA
100
AcDbEntity
  8
A99--S-
100
AcDbLine
 10
150.6374075796019
 20
45.50392550093761
 30
0.0
 11
158.6703341722403
 21
57.41322893011215
 31
0.0
1001
ACAD
1010
0.0
1020
0.0
1030
0.0
  0
LINE
  5
110FE
330
110EA
100
AcDbEntity
  8
A99--S-
100
AcDbLine
 10
158.3776143191343
 20
45.62360192387018
 30
0.0
 11
162.6244503996423
 21
51.9197953365026
 31
0.0
1001
ACAD
1010
0.0
1020
0.0
1030
0.0
  0
ARC
  5
110FF
330
110EA
100
AcDbEntity
  8
SX$17
 62
    32
100
AcDbCircle
 10
15.64984609188332
 20
-25.48207609895917
 30
0.0
 40
28.0
100
AcDbArc
 50
60.27037599990518
 51
101.000003000088
  0
LINE
  5
11100
330
110EA
100
AcDbEntity
  8
SX$17
 62
    32
100
AcDbLine
 10
29.53544128276576
 20
-1.167670517025726
 30
0.0
 11
34.17089625002404
 21
-3.814865438292144
 31
0.0
  0
ARC
  5
11101
330
110EA
100
AcDbEntity
  8
SX$17
 62
    32
100
AcDbCircle
 10
51.03194993701333
 20
25.70974553797441
 30
0.0
 40
34.0
100
AcDbArc
 50
240.2703809999541
 51
274.0805269999225
  0
ARC
  5
11102
330
110EA
100
AcDbEntity
  8
SX$17
 62
    32
100
AcDbCircle
 10
154.7155121670608
 20
32.1110519118331
 30
0.0
 40
14.0
100
AcDbArc
 50
55.60297502605338
 51
131.0098799999721
  0
LINE
  5
11103
330
110EA
100
AcDbEntity
  8
SX$17
 62
    32
100
AcDbLine
 10
123.1087537472102
 20
23.17920490410006
 30
0.0
 11
145.5288428070988
 21
42.67543523723225
 31
0.0
  0
ARC
  5
11104
330
110EA
100
AcDbEntity
  8
SX$17
 62
    32
100
AcDbCircle
 10
36.16376063736254
 20
123.1633993790049
 30
0.0
 40
132.5
100
AcDbArc
 50
277.4968789999237
 51
311.0098850000156
  0
LINE
  5
11105
330
110EA
100
AcDbEntity
  8
SX$17
 62
    32
100
AcDbLine
 10
0.0000736220565614
 20
0.0000143106781252
 30
0.0
 11
10.30718849706818
 21
2.003514486400945
 31
0.0
  0
ARC
  5
11106
330
110EA
100
AcDbEntity
  8
SX$17
 62
    32
100
AcDbCircle
 10
54.19532248427493
 20
30.39944852842723
 30
0.0
 40
27.0
100
AcDbArc
 50
214.5781730000139
 51
281.000001000097
  0
LINE
  5
11107
330
110EA
100
AcDbEntity
  8
SX$17
 62
    32
100
AcDbLine
 10
0.0
 20
0.0
 30
0.0
 11
-2.242011419946152
 21
11.53414885433562
 31
0.0
  0
LINE
  5
11108
330
110EA
100
AcDbEntity
  8
SX$17
 62
    32
100
AcDbLine
 10
-2.242011419946152
 20
11.53414885433562
 30
0.0
 11
1.003247735036438
 21
13.33794429618342
 31
0.0
  0
ARC
  5
11109
330
110EA
100
AcDbEntity
  8
SX$17
 62
    32
100
AcDbCircle
 10
1.974866540584116
 20
11.58974353242365
 30
0.0
 40
2.0
100
AcDbArc
 50
42.27322299982463
 51
119.0665090000465
  0
LINE
  5
1110A
330
110EA
100
AcDbEntity
  8
SX$17
 62
    32
100
AcDbLine
 10
3.454799505973028
 20
12.93505521960742
 30
0.0
 11
5.497563278073698
 21
10.68795231327499
 31
0.0
  0
ARC
  5
1110B
330
110EA
100
AcDbEntity
  8
SX$17
 62
    32
100
AcDbCircle
 10
7.717375747469191
 20
12.7059742472843
 30
0.0
 40
3.0
100
AcDbArc
 50
222.2732280000101
 51
281.000001000097
  0
LINE
  5
1110C
330
110EA
100
AcDbEntity
  8
SX$17
 62
    32
100
AcDbLine
 10
12.75409411063594
 20
12.71302495960049
 30
0.0
 11
13.0164335233336
 21
13.50898062684109
 31
0.0
  0
ARC
  5
1110D
330
110EA
100
AcDbEntity
  8
SX$17
 62
    32
100
AcDbCircle
 10
8.955136562447478
 20
13.96527199133038
 30
0.0
 40
4.0
100
AcDbArc
 50
281.000001000097
 51
341.754997999936
  0
ARC
  5
1110E
330
110EA
100
AcDbEntity
  8
SX$17
 62
    32
100
AcDbCircle
 10
14.91589449836886
 20
12.88273904555581
 30
0.0
 40
2.0
100
AcDbArc
 50
37.71708399994716
 51
161.7561270000364
  0
LINE
  5
1110F
330
110EA
100
AcDbEntity
  8
SX$17
 62
    32
100
AcDbLine
 10
17.86607067570935
 20
12.3373080953545
 30
0.0
 11
16.49799601294319
 21
14.1062984791497
 31
0.0
  0
ARC
  5
11110
330
110EA
100
AcDbEntity
  8
SX$17
 62
    32
100
AcDbCircle
 10
28.02331151478154
 20
14.10625658167714
 30
0.0
 40
2.0
100
AcDbArc
 50
101.000003000088
 51
154.1304529999504
  0
ARC
  5
11111
330
110EA
100
AcDbEntity
  8
SX$17
 62
    32
100
AcDbCircle
 10
29.49469939019093
 20
13.37356399755367
 30
0.0
 40
3.0
100
AcDbArc
 50
34.57817800000877
 51
101.000003000088
  0
LINE
  5
11112
330
110EA
100
AcDbEntity
  8
SX$17
 62
    32
100
AcDbLine
 10
21.79343892650217
 20
10.85788919366473
 30
0.0
 11
22.51517540498526
 21
10.99818055346804
 31
0.0
  0
ARC
  5
11113
330
110EA
100
AcDbEntity
  8
SX$17
 62
    32
100
AcDbCircle
 10
21.03020008285864
 20
14.78441265187507
 30
0.0
 40
4.0
100
AcDbArc
 50
217.7170819999159
 51
281.000001000097
  0
LINE
  5
11114
330
110EA
100
AcDbEntity
  8
SX$17
 62
    32
100
AcDbLine
 10
27.64168493762213
 20
16.06955512180343
 30
0.0
 11
28.92226667978957
 21
16.31847499672199
 31
0.0
  0
LINE
  5
11115
330
110EA
100
AcDbEntity
  8
SX$17
 62
    32
100
AcDbLine
 10
8.289794147192537
 20
9.761136870172322
 30
0.0
 11
9.718361095410045
 21
10.0388221551907
 31
0.0
  0
ARC
  5
11116
330
110EA
100
AcDbEntity
  8
SX$17
 62
    32
100
AcDbCircle
 10
21.75193656134172
 20
14.92470401167861
 30
0.0
 40
4.0
100
AcDbArc
 50
281.000001000097
 51
334.1304580001075
  0
LINE
  5
11117
330
110EA
100
AcDbEntity
  8
SX$17
 62
    32
100
AcDbLine
 10
26.22376585949519
 20
14.97895093633474
 30
0.0
 11
25.35109072361195
 21
13.1793326130587
 31
0.0
  0
LINE
  5
11118
330
110EA
100
AcDbEntity
  8
SX$17
 62
    32
100
AcDbLine
 10
115.8907658383673
 20
31.47974722389972
 30
0.0
 11
138.3108396335338
 21
50.97605608721892
 31
0.0
  0
ARC
  5
11119
330
110EA
100
AcDbEntity
  8
SX$17
 62
    32
100
AcDbCircle
 10
36.16383425939057
 20
123.1634136896775
 30
0.0
 40
121.499995
100
AcDbArc
 50
281.000001000097
 51
311.0098850000156
  0
ARC
  5
1111A
330
110EA
100
AcDbEntity
  8
SX$17
 62
    32
100
AcDbCircle
 10
156.6788107072015
 20
32.49267848899513
 30
0.0
 40
25.0
100
AcDbArc
 50
76.24175975557695
 51
103.2924389999982
  0
ARC
  5
1111B
330
110EA
100
AcDbEntity
  8
SX$17
 62
    32
100
AcDbCircle
 10
154.7155857891174
 20
32.11106622251123
 30
0.0
 40
25.0
100
AcDbArc
 50
98.70755900008177
 51
131.0098799999721
  0
ENDBLK
  5
110EC
330
110EA
100
AcDbEntity
  8
0
100
AcDbBlockEnd
  0
ENDSEC
  0
SECTION
  2
ENTITIES
  0
INSERT
  5
7B09
330
18
100
AcDbEntity
  8
LAFARGE09-S--
100
AcDbBlockReference
  2
Modelramme A4_1-10
 10
-3563.860138353379
 20
-1089.284786857553
 30
0.0
  0
MTEXT
  5
7B13
330
18
100
AcDbEntity
  8
LAFARGE99--T-
 62
     1
100
AcDbMText
 10
-2070.112236496578
 20
463.2673222925193
 30
0.0
 40
25.0
 41
1570.0
 71
     1
 72
     5
  3
{\LNOTE:\P}Vinkelret snit i skotrende, tagsten er vist i normalsnit.\PKonstruktion med B&C Danflock{\H1.0833x;\C256;®\H0.92311x;\C1; tagsten, der anvendes til taghældninger på 20° og derover.}\PDer er ikke vist forankring af tagkonstruktion og fastgø
  3
relser iøvrigt.\PHvis skotrende ikke udføres med kelspær, monteres understøtning imellem spær i \Phele rendens bund.\P\PMontage:\P- Lægter monteres iht. anvisninger for tagstenstype.\P- Bærelægte og skotrendebrædder monteres ved fastgørelse i smigskå
  3
rne lægteender, evt med tildannede vinkelbeslag.\P- Skotrendeinddækningerne monteres.\P- Montageanvisninger fra producenten af skotrendeinddækningen skal følges.\P- B&C STRIPS monteres.\P- Tagsten tildannes mekanisk på bagsiden, således tagstenene fa
  1
lder tæt samme i falsene.{\fCalibri|b0|i0|c0|p34;\H0.83333x;\C0; }\P- Tagsten oplægges iht. anvisninger for tagstenstype.
  7
ARIAL
 73
     1
 44
1.0
  0
LINE
  5
E704
102
{ACAD_REACTORS
330
E708
102
}
330
18
100
AcDbEntity
  8
LAFARGE99--S-2
100
AcDbLine
 10
-1367.763356345046
 20
977.0707907568308
 30
0.0
 11
-1442.763356345052
 21
769.4684966546183
 31
0.0
  0
LINE
  5
E705
102
{ACAD_REACTORS
330
E708
102
}
330
18
100
AcDbEntity
  8
LAFARGE99--S-2
100
AcDbLine
 10
-1367.763356345052
 20
769.4684966546183
 30
0.0
 11
-1442.763356345046
 21
977.0707907568308
 31
0.0
  0
LINE
  5
EA3F
330
18
100
AcDbEntity
  8
LAFARGE99-O--
100
AcDbLine
 10
-622.7076904661819
 20
850.1134955307835
 30
0.0
 11
-1405.263356345052
 21
698.0000832797761
 31
0.0
  0
LINE
  5
EA40
330
18
100
AcDbEntity
  8
LAFARGE99-O--
100
AcDbLine
 10
-1405.263356345052
 20
684.7567662453586
 30
0.0
 11
-622.7076904661819
 21
836.8701784963651
 31
0.0
  0
LWPOLYLINE
  5
EA43
330
18
100
AcDbEntity
  8
LAFARGE99-I--
  6
Continuous
 48
0.5
100
AcDbPolyline
 90
        2
 70
     0
 43
0.0
 10
-945.2130909104798
 20
851.603947876015
 42
0.1259318701382259
 10
-949.6940654526683
 20
849.4805204352944
 42
0.1259318701382259
  0
INSERT
  5
EC09
330
18
100
AcDbEntity
  8
LAFARGE99-T--
100
AcDbBlockReference
  2
A$C6D67221A
 10
-1293.498160972345
 20
783.9041882893391
 30
0.0
  0
INSERT
  5
EC0A
330
18
100
AcDbEntity
  8
LAFARGE99-T--
100
AcDbBlockReference
  2
A$C6D67221A
 10
-999.0100059380456
 20
841.1468869023007
 30
0.0
  0
LWPOLYLINE
  5
EC0B
330
18
100
AcDbEntity
  8
LAFARGE99-I--
  6
Continuous
 48
0.5
100
AcDbPolyline
 90
       12
 70
     0
 43
0.0
 10
-1293.220340064529
 20
782.474923622314
 42
0.584977306311063
 10
-1306.507058832353
 20
771.1883477522174
 10
-1300.782788971057
 20
741.7395322487875
 42
-0.9999999999999998
 10
-1320.415332640011
 20
737.9233523412565
 10
-1326.139602501307
 20
767.3721678446863
 42
0.9999999999999998
 10
-1345.77214617026
 20
763.5559879371558
 10
-1340.047876308963
 20
734.1071724337257
 42
-0.9999999999999998
 10
-1359.680419977916
 20
730.2909925261944
 10
-1365.404689839213
 20
759.7398080296247
 42
0.9999999999999998
 10
-1385.037233508165
 20
755.9236281220937
 10
-1379.31296364687
 20
726.4748126186638
 42
-0.38559826517273
 10
-1386.263356345052
 20
714.9861831823771
 42
-0.38559826517273
  0
LWPOLYLINE
  5
EC0C
330
18
100
AcDbEntity
  8
LAFARGE99-I--
  6
Continuous
 48
0.5
100
AcDbPolyline
 90
       27
 70
     0
 43
0.0
 10
-989.7473770770341
 20
793.4947923969423
 42
-0.584977306311026
 10
-1006.294633936756
 20
798.9822308617504
 10
-1012.018903798052
 20
828.4310463651802
 42
0.9999999999999998
 10
-1031.651447467005
 20
824.6148664576496
 10
-1025.927177605708
 20
795.1660509542196
 42
-0.9999999999999998
 10
-1045.559721274661
 20
791.3498710466885
 10
-1051.283991135959
 20
820.7986865501187
 42
0.9999999999999998
 10
-1070.916534804911
 20
816.9825066425875
 10
-1065.192264943615
 20
787.5336911391575
 42
-0.9999999999999998
 10
-1084.824808612568
 20
783.7175112316267
 10
-1090.549078473865
 20
813.1663267350567
 42
0.4142135623730873
 10
-1102.273440262108
 20
821.0745086157682
 42
0.4142135623730951
 10
-1110.181622142819
 20
809.3501468275258
 10
-1104.457352281522
 20
779.9013313240959
 42
-0.9999999999999998
 10
-1124.089895950476
 20
776.0851514165649
 10
-1129.814165811772
 20
805.5339669199945
 42
1.0
 10
-1149.446709480726
 20
801.7177870124644
 10
-1143.72243961943
 20
772.2689715090344
 42
-0.9999999999999998
 10
-1163.354983288384
 20
768.4527916015033
 10
-1169.079253149679
 20
797.9016071049334
 42
0.9999999999999998
 10
-1188.711796818632
 20
794.0854271974028
 10
-1182.987526957337
 20
764.6366116939727
 42
-0.9999999999999998
 10
-1202.62007062629
 20
760.8204317864415
 10
-1208.344340487587
 20
790.2692472898718
 42
0.9999999999999998
 10
-1227.976884156538
 20
786.4530673823407
 10
-1222.252614295243
 20
757.0042518789107
 42
-0.5698714599901283
 10
-1235.110933344128
 20
745.5700951216156
  0
LWPOLYLINE
  5
EC29
330
18
100
AcDbEntity
  8
LAFARGE99-A--1
100
AcDbPolyline
 90
        4
 70
     0
 43
0.0
 10
-2187.819022223921
 20
914.2926473129618
 10
-1442.76335634505
 20
769.4684966546183
 10
-1367.763356345055
 20
769.4684966546183
 10
-622.707690466182
 20
914.2926473129621
  0
LWPOLYLINE
  5
EC38
330
18
100
AcDbEntity
  8
LAFARGE99-I--
  6
Continuous
 48
0.5
100
AcDbPolyline
 90
        2
 70
     0
 43
0.0
 10
-1865.313621779625
 20
851.603947876015
 42
-0.1259318701382259
 10
-1860.832647237436
 20
849.4805204352944
 42
-0.1259318701382259
  0
LINE
  5
EC45
330
18
100
AcDbEntity
  8
LAFARGE99-T--
 62
    30
100
AcDbLine
 10
-1628.948368700503
 20
1019.589702853667
 30
0.0
 11
-1621.697626876194
 21
1056.891535824679
 31
0.0
  0
INSERT
  5
EC4C
330
18
100
AcDbEntity
  8
LAFARGE99-T--
100
AcDbBlockReference
  2
A$C6D67221A
 10
-1517.02855171776
 20
783.9041882893391
 30
0.0
 41
-1.0
  0
INSERT
  5
EC4D
330
18
100
AcDbEntity
  8
LAFARGE99-T--
100
AcDbBlockReference
  2
A$C6D67221A
 10
-1811.51670675206
 20
841.1468869023007
 30
0.0
 41
-1.0
  0
LWPOLYLINE
  5
EC4E
330
18
100
AcDbEntity
  8
LAFARGE99-I--
  6
Continuous
 48
0.5
100
AcDbPolyline
 90
       12
 70
     0
 43
0.0
 10
-1517.306372625576
 20
782.474923622314
 42
-0.584977306311063
 10
-1504.019653857751
 20
771.1883477522174
 10
-1509.743923719048
 20
741.7395322487875
 42
0.9999999999999998
 10
-1490.111380050094
 20
737.9233523412565
 10
-1484.387110188797
 20
767.3721678446863
 42
-0.9999999999999998
 10
-1464.754566519844
 20
763.5559879371558
 10
-1470.478836381142
 20
734.1071724337257
 42
0.9999999999999998
 10
-1450.846292712189
 20
730.2909925261944
 10
-1445.122022850891
 20
759.7398080296247
 42
-0.9999999999999998
 10
-1425.489479181939
 20
755.9236281220937
 10
-1431.213749043235
 20
726.4748126186638
 42
0.38559826517273
 10
-1424.263356345052
 20
714.9861831823771
 42
0.38559826517273
  0
LWPOLYLINE
  5
EC4F
330
18
100
AcDbEntity
  8
LAFARGE99-I--
  6
Continuous
 48
0.5
100
AcDbPolyline
 90
       27
 70
     0
 43
0.0
 10
-1820.779335613071
 20
793.4947923969423
 42
0.584977306311026
 10
-1804.232078753349
 20
798.9822308617504
 10
-1798.507808892052
 20
828.4310463651802
 42
-0.9999999999999998
 10
-1778.875265223099
 20
824.6148664576496
 10
-1784.599535084396
 20
795.1660509542196
 42
0.9999999999999998
 10
-1764.966991415443
 20
791.3498710466885
 10
-1759.242721554146
 20
820.7986865501187
 42
-0.9999999999999998
 10
-1739.610177885194
 20
816.9825066425875
 10
-1745.334447746489
 20
787.5336911391575
 42
0.9999999999999998
 10
-1725.701904077536
 20
783.7175112316267
 10
-1719.97763421624
 20
813.1663267350567
 42
-0.4142135623730873
 10
-1708.253272427997
 20
821.0745086157682
 42
-0.4142135623730951
 10
-1700.345090547286
 20
809.3501468275258
 10
-1706.069360408582
 20
779.9013313240959
 42
0.9999999999999998
 10
-1686.436816739629
 20
776.0851514165649
 10
-1680.712546878333
 20
805.5339669199945
 42
-1.0
 10
-1661.080003209379
 20
801.7177870124644
 10
-1666.804273070675
 20
772.2689715090344
 42
0.9999999999999998
 10
-1647.171729401721
 20
768.4527916015033
 10
-1641.447459540426
 20
797.9016071049334
 42
-0.9999999999999998
 10
-1621.814915871472
 20
794.0854271974028
 10
-1627.539185732768
 20
764.6366116939727
 42
0.9999999999999998
 10
-1607.906642063815
 20
760.8204317864415
 10
-1602.182372202518
 20
790.2692472898718
 42
-0.9999999999999998
 10
-1582.549828533566
 20
786.4530673823407
 10
-1588.274098394862
 20
757.0042518789107
 42
0.5698714599901283
 10
-1575.415779345977
 20
745.5700951216156
  0
INSERT
  5
EC69
330
18
100
AcDbEntity
  8
LAFARGE09-C--
  6
Continuous
 62
     8
100
AcDbBlockReference
  2
Vent pil
 10
-1059.237666532054
 20
1060.529313992293
 30
0.0
  0
LINE
  5
EC6B
330
18
100
AcDbEntity
  8
LAFARGE99-O--
100
AcDbLine
 10
-1405.263356345052
 20
684.7567662453586
 30
0.0
 11
-1405.263356345052
 21
711.2434003141941
 31
0.0
  0
LINE
  5
EC6F
330
18
100
AcDbEntity
  8
LAFARGE99--S-2
100
AcDbLine
 10
-1423.38321680855
 20
714.7655443926212
 30
0.0
 11
-1386.263356345052
 21
769.4684966546183
 31
0.0
  0
LINE
  5
EC70
330
18
100
AcDbEntity
  8
LAFARGE99--S-2
100
AcDbLine
 10
-1387.143495881554
 20
714.7655443926212
 30
0.0
 11
-1424.263356345052
 21
769.4684966546185
 31
0.0
  0
LWPOLYLINE
  5
EC72
330
18
100
AcDbEntity
  8
LAFARGE99-T--
100
AcDbPolyline
 90
        7
 70
     1
 43
0.0
 10
-1424.263356345052
 20
714.9366261878108
 10
-1405.263356345055
 20
711.2434003141938
 10
-1386.263356345052
 20
714.9366261878108
 10
-1386.263356345052
 20
714.9366261878108
 10
-1386.263356345052
 20
769.4684966546183
 10
-1424.263356345052
 20
769.4684966546185
 10
-1424.263356345052
 20
714.9366261878108
  0
LINE
  5
ECBF
330
18
100
AcDbEntity
  8
LAFARGE99-O--
100
AcDbLine
 10
-622.7076904661819
 20
863.3568125652011
 30
0.0
 11
-1405.263356345052
 21
711.2434003141938
 31
0.0
  0
LINE
  5
EE9C
330
18
100
AcDbEntity
  8
LAFARGE99--T-
 62
     8
100
AcDbLine
 10
-1612.241980272609
 20
1031.439007263475
 30
0.0
 11
-1691.991952756829
 21
1262.94615842922
 31
0.0
  0
LWPOLYLINE
  5
EE9D
330
18
100
AcDbEntity
  8
LAFARGE99--T-
 62
     8
100
AcDbPolyline
 90
        2
 70
     1
 43
3.281249999999998
 10
-1613.817984811755
 20
1030.98309051316
 42
-1.0
 10
-1610.665975733464
 20
1031.894924013791
 42
-1.0
  0
LINE
  5
EEA6
330
18
100
AcDbEntity
  8
LAFARGE99--T-
 62
     8
100
AcDbLine
 10
-1438.998403653933
 20
996.0030149542021
 30
0.0
 11
-1559.590617564481
 21
1346.071598372528
 31
0.0
  0
LWPOLYLINE
  5
EEA7
330
18
100
AcDbEntity
  8
LAFARGE99--T-
 62
     8
100
AcDbPolyline
 90
        2
 70
     1
 43
3.281249999999998
 10
-1440.574408193078
 20
995.5470982038869
 42
-1.0
 10
-1437.422399114787
 20
996.4589317045174
 42
-1.0
  0
LINE
  5
EEB0
330
18
100
AcDbEntity
  8
LAFARGE99--T-
 62
     8
100
AcDbLine
 10
-1359.475711473186
 20
1012.19497970333
 30
0.0
 11
-1486.546948974093
 21
1381.071598372529
 31
0.0
  0
LWPOLYLINE
  5
EEB1
330
18
100
AcDbEntity
  8
LAFARGE99--T-
 62
     8
100
AcDbPolyline
 90
        2
 70
     1
 43
3.281249999999998
 10
-1361.051716012332
 20
1011.739062953014
 42
-1.0
 10
-1357.899706934041
 20
1012.650896453645
 42
-1.0
  0
MTEXT
  5
EEBE
330
18
100
AcDbEntity
  8
LAFARGE99--T-
100
AcDbMText
 10
-2184.722473333081
 20
1271.625681706763
 30
0.0
 40
17.5
 41
328.0058183433371
 71
     1
 72
     5
  1
Bærelægte, 38 x 73 mm.
  7
ARIAL
 73
     1
 44
1.0
  0
LINE
  5
EEBF
330
18
100
AcDbEntity
  8
LAFARGE99--T-
 62
     8
100
AcDbLine
 10
-1892.055270097931
 20
1262.946158429223
 30
0.0
 11
-1691.991952756829
 21
1262.94615842922
 31
0.0
  0
LINE
  5
EEC1
330
18
100
AcDbEntity
  8
LAFARGE99--T-
 62
     8
100
AcDbLine
 10
-1954.732530702865
 20
1346.071598372529
 30
0.0
 11
-1559.590617564481
 21
1346.071598372528
 31
0.0
  0
LINE
  5
EEC3
330
18
100
AcDbEntity
  8
LAFARGE99--T-
 62
     8
100
AcDbLine
 10
-1780.007633802908
 20
1381.071598372528
 30
0.0
 11
-1486.546948974093
 21
1381.071598372529
 31
0.0
  0
MTEXT
  5
EEC4
330
18
100
AcDbEntity
  8
LAFARGE99--T-
100
AcDbMText
 10
-2186.473465475216
 20
1389.75112165007
 30
0.0
 40
17.5
 41
457.618368375629
 71
     1
 72
     5
  1
Skotrendeinddækning i alu eller zink
  7
ARIAL
 73
     1
 44
1.0
  0
MTEXT
  5
EEC6
330
18
100
AcDbEntity
  8
LAFARGE99--T-
100
AcDbMText
 10
-2186.473465475216
 20
1354.75112165007
 30
0.0
 40
17.5
 41
530.0909154208247
 71
     1
 72
     5
  1
Skotrendebrædder
  7
ARIAL
 73
     1
 44
1.0
  0
MTEXT
  5
EF01
330
18
100
AcDbEntity
  8
LAFARGE99--T-
100
AcDbMText
 10
-1238.694910399799
 20
1358.746106689791
 30
0.0
 40
17.5
 41
308.1134112972013
 71
     1
 72
     5
  1
B&C Danflock tagsten
  7
ARIAL
 73
     1
 44
1.0
  0
MTEXT
  5
EF06
330
18
100
AcDbEntity
  8
LAFARGE99--T-
100
AcDbMText
 10
-1238.694910399799
 20
1323.746106689792
 30
0.0
 40
17.5
 41
308.1134112972013
 71
     1
 72
     5
  1
Lægte, 38 x 73 mm.
  7
ARIAL
 73
     1
 44
1.0
  0
MTEXT
  5
EF07
330
18
100
AcDbEntity
  8
LAFARGE99--T-
100
AcDbMText
 10
-1238.694910399799
 20
1270.695367561571
 30
0.0
 40
17.5
 41
195.8151322588398
 71
     1
 72
     5
  1
Ventileret hulrum, min. 20 mm.
  7
ARIAL
 73
     1
 44
1.0
  0
LINE
  5
EF09
330
18
100
AcDbEntity
  8
LAFARGE99--T-
 62
     8
100
AcDbLine
 10
-992.0132116126188
 20
1350.066583412252
 30
0.0
 11
-934.2016562778022
 21
1350.066583412252
 31
0.0
  0
LINE
  5
EF0A
330
18
100
AcDbEntity
  8
LAFARGE99--T-
 62
     8
100
AcDbLine
 10
-1009.892059986905
 20
1315.066583412252
 30
0.0
 11
-966.3515740008094
 21
1315.066583412252
 31
0.0
  0
LINE
  5
EF0B
330
18
100
AcDbEntity
  8
LAFARGE99--T-
 62
     8
100
AcDbLine
 10
-1042.879778140959
 20
1262.015844284031
 30
0.0
 11
-1003.542261029305
 21
1262.01584428403
 31
0.0
  0
LINE
  5
EF16
330
18
100
AcDbEntity
  8
LAFARGE99--T-
 62
     8
100
AcDbLine
 10
-858.1621142926001
 20
1129.330485422684
 30
0.0
 11
-934.2016562778022
 21
1350.066583412252
 31
0.0
  0
LWPOLYLINE
  5
EF17
330
18
100
AcDbEntity
  8
LAFARGE99--T-
 62
     8
100
AcDbPolyline
 90
        2
 70
     1
 43
3.281249999999998
 10
-859.7381188317461
 20
1128.874568672369
 42
-1.0
 10
-856.5861097534551
 20
1129.786402172999
 42
-1.0
  0
LINE
  5
EF20
330
18
100
AcDbEntity
  8
LAFARGE99--T-
 62
     8
100
AcDbLine
 10
-888.7908576857569
 20
1089.914650224748
 30
0.0
 11
-966.3515740008094
 21
1315.066583412252
 31
0.0
  0
LWPOLYLINE
  5
EF21
330
18
100
AcDbEntity
  8
LAFARGE99--T-
 62
     8
100
AcDbPolyline
 90
        2
 70
     1
 43
3.281249999999998
 10
-890.3668622249027
 20
1089.458733474432
 42
-1.0
 10
-887.2148531466116
 20
1090.370566975063
 42
-1.0
  0
INSERT
  5
EF36
330
18
100
AcDbEntity
  8
LAFARGE09-C--
  6
Continuous
 62
     8
100
AcDbBlockReference
  2
Vent pil
 10
-1681.822759937813
 20
1044.703760523504
 30
0.0
 41
-1.0
  0
MTEXT
  5
EF37
330
18
100
AcDbEntity
  8
LAFARGE99--T-
100
AcDbMText
 10
-1058.475275186576
 20
723.9602594934155
 30
0.0
 40
17.5
 41
404.6081703068819
 71
     1
 72
     5
  1
Dampspærre, 0,20 mm PE-folie
  7
ARIAL
 73
     1
 44
1.0
  0
LINE
  5
EF38
330
18
100
AcDbEntity
  8
LAFARGE99--T-
 62
     8
100
AcDbLine
 10
-1128.800466188387
 20
715.2807362158753
 30
0.0
 11
-1075.343822793902
 21
715.2807362158753
 31
0.0
  0
MTEXT
  5
EF39
330
18
100
AcDbEntity
  8
LAFARGE99--T-
100
AcDbMText
 10
-1058.475275186576
 20
653.9602594934152
 30
0.0
 40
17.5
 41
801.4820576700781
 71
     1
 72
     5
  1
Forskalling, 50 x 50 mm.
  7
ARIAL
 73
     1
 44
1.0
  0
LINE
  5
EF3A
330
18
100
AcDbEntity
  8
LAFARGE99--T-
 62
     8
100
AcDbLine
 10
-1207.661470118158
 20
645.2807362158758
 30
0.0
 11
-1075.343822793902
 21
645.2807362158749
 31
0.0
  0
MTEXT
  5
EF3B
330
18
100
AcDbEntity
  8
LAFARGE99--T-
100
AcDbMText
 10
-1058.475275186576
 20
618.9602594934151
 30
0.0
 40
17.5
 41
801.4820576700781
 71
     1
 72
     5
  1
Loftbeklædning
  7
ARIAL
 73
     1
 44
1.0
  0
LINE
  5
EF3C
330
18
100
AcDbEntity
  8
LAFARGE99--T-
 62
     8
100
AcDbLine
 10
-1249.988055273649
 20
610.2807362158757
 30
0.0
 11
-1075.343822793902
 21
610.2807362158748
 31
0.0
  0
MTEXT
  5
EF3D
330
18
100
AcDbEntity
  8
LAFARGE99--T-
100
AcDbMText
 10
-1058.475275186576
 20
688.9602594934152
 30
0.0
 40
17.5
 41
801.4820576700781
 71
     1
 72
     5
  1
Mineraluld
  7
ARIAL
 73
     1
 44
1.0
  0
LINE
  5
EF3E
330
18
100
AcDbEntity
  8
LAFARGE99--T-
 62
     8
100
AcDbLine
 10
-1179.507220499958
 20
680.2807362158753
 30
0.0
 11
-1075.343822793902
 21
680.2807362158748
 31
0.0
  0
LINE
  5
EF53
330
18
100
AcDbEntity
  8
LAFARGE99--T-
 62
     8
100
AcDbLine
 10
-1256.427661465352
 20
903.5740064152443
 30
0.0
 11
-1179.507220499958
 21
680.2807362158753
 31
0.0
  0
LWPOLYLINE
  5
EF54
330
18
100
AcDbEntity
  8
LAFARGE99--T-
 62
     8
100
AcDbPolyline
 90
        2
 70
     1
 43
3.281249999999998
 10
-1254.61071985096
 20
904.3736132650677
 42
-1.0
 10
-1257.762728929251
 20
903.461779764437
 42
-1.0
  0
LWPOLYLINE
  5
EF55
330
18
100
AcDbEntity
  8
LAFARGE99--T-
 62
     8
100
AcDbPolyline
 90
        2
 70
     1
 43
3.281249999999998
 10
-1234.40114903375
 20
844.6638986442101
 42
-1.0
 10
-1237.55315811204
 20
843.7520651435795
 42
-1.0
  0
LWPOLYLINE
  5
EF56
330
18
100
AcDbEntity
  8
LAFARGE99--T-
 62
     8
100
AcDbPolyline
 90
        2
 70
     1
 43
3.281249999999998
 10
-1209.886420697966
 20
773.4997998761216
 42
-1.0
 10
-1213.038429776256
 20
772.587966375491
 42
-1.0
  0
LINE
  5
EF57
330
18
100
AcDbEntity
  8
LAFARGE99--T-
 62
     8
100
AcDbLine
 10
-1250.83722551752
 20
770.6161541548974
 30
0.0
 11
-1207.661470118158
 21
645.2807362158758
 31
0.0
  0
LWPOLYLINE
  5
EF58
330
18
100
AcDbEntity
  8
LAFARGE99--T-
 62
     8
100
AcDbPolyline
 90
        2
 70
     1
 43
3.281249999999998
 10
-1249.261220978375
 20
771.072070905213
 42
-1.0
 10
-1252.413230056665
 20
770.1602374045823
 42
-1.0
  0
LINE
  5
EF59
330
18
100
AcDbEntity
  8
LAFARGE99--T-
 62
     8
100
AcDbLine
 10
-1288.059319377073
 20
720.7982651793634
 30
0.0
 11
-1249.988055273649
 21
610.2807362158757
 31
0.0
  0
LWPOLYLINE
  5
EF5A
330
18
100
AcDbEntity
  8
LAFARGE99--T-
 62
     8
100
AcDbPolyline
 90
        2
 70
     1
 43
3.281249999999998
 10
-1286.483314837927
 20
721.2541819296791
 42
-1.0
 10
-1289.635323916218
 20
720.3423484290485
 42
-1.0
  0
LINE
  5
EF5B
330
18
100
AcDbEntity
  8
LAFARGE99--T-
 62
     8
100
AcDbLine
 10
-1161.150819760036
 20
809.1909654144989
 30
0.0
 11
-1128.800466188387
 21
715.2807362158753
 31
0.0
  0
LWPOLYLINE
  5
EF5C
330
18
100
AcDbEntity
  8
LAFARGE99--T-
 62
     8
100
AcDbPolyline
 90
        2
 70
     1
 43
3.281249999999998
 10
-1159.57481522089
 20
809.6468821648144
 42
-1.0
 10
-1162.726824299181
 20
808.735048664184
 42
-1.0
  0
LINE
  5
EF61
330
18
100
AcDbEntity
  8
LAFARGE99--T-
 62
     8
100
AcDbLine
 10
-1385.023738417423
 20
853.7322316446122
 30
0.0
 11
-1289.102299330935
 21
575.2807362158764
 31
0.0
  0
LWPOLYLINE
  5
EF62
330
18
100
AcDbEntity
  8
LAFARGE99--T-
 62
     8
100
AcDbPolyline
 90
        2
 70
     1
 43
3.281249999999998
 10
-1383.447733878277
 20
854.1881483949275
 42
-1.0
 10
-1386.599742956568
 20
853.276314894297
 42
-1.0
  0
MTEXT
  5
F624
330
18
100
AcDbEntity
  8
LAFARGE99--T-
100
AcDbMText
 10
-1058.475275186576
 20
583.9602594934151
 30
0.0
 40
17.5
 41
801.4820576700781
 71
     1
 72
     5
  1
Kelspær
  7
ARIAL
 73
     1
 44
1.0
  0
LINE
  5
F625
330
18
100
AcDbEntity
  8
LAFARGE99--T-
 62
     8
100
AcDbLine
 10
-1289.102299330935
 20
575.2807362158764
 30
0.0
 11
-1075.343822793902
 21
575.2807362158748
 31
0.0
  0
LWPOLYLINE
  5
F7B3
330
18
100
AcDbEntity
  8
LAFARGE99-I--
  6
Continuous
 48
0.5
100
AcDbPolyline
 90
       52
 70
     0
 43
0.0
 10
-622.707690466182
 20
914.3153809679638
 42
-0.4284829294488452
 10
-645.8834082336359
 20
929.1433613329866
 10
-656.7595209700987
 20
985.0961107895034
 42
0.4142135623730951
 10
-679.0358083677581
 20
1000.121656362854
 42
0.4142135623730951
 10
-694.0613539411113
 20
977.8453689651954
 10
-683.1852412046485
 20
921.8926195086778
 42
-0.4142135623730951
 10
-698.210786778
 20
899.6163321110175
 42
-0.4142135623730911
 10
-720.4870741756597
 20
914.6418776843693
 10
-731.3631869121224
 20
970.594627140886
 42
0.4142135623730951
 10
-753.6394743097819
 20
985.6201727142375
 42
0.4142135623730951
 10
-768.665019883135
 20
963.3438853165781
 10
-757.7889071466723
 20
907.3911358600605
 42
-0.9999999999999998
 10
-795.0907401176839
 20
900.1403940357519
 10
-805.9668528541466
 20
956.0931434922686
 42
1.0
 10
-843.268685825158
 20
948.8424016679603
 10
-832.3925730886955
 20
892.8896522114428
 42
-0.9999999999999998
 10
-869.694406059707
 20
885.6389103871347
 10
-880.5705187961699
 20
941.5916598436515
 42
0.4142135623730951
 10
-902.8468061938292
 20
956.6172054170028
 42
0.4142135623730951
 10
-917.8723517671825
 20
934.3409180193434
 10
-906.9962390307196
 20
878.3881685628259
 42
-0.4142135623730951
 10
-922.0217846040711
 20
856.1118811651631
 42
-0.4142135623730763
 10
-944.2980720017299
 20
871.1374267385151
 10
-955.1741847381936
 20
927.090176195032
 42
0.9999999999999998
 10
-992.4760177092034
 20
919.8394343707233
 10
-981.5999049727407
 20
863.8866849142061
 42
-0.9999999999999998
 10
-1018.901737943752
 20
856.635943089898
 10
-1029.777850680215
 20
912.5886925464149
 42
0.4142135623730951
 10
-1052.054138077874
 20
927.6142381197661
 42
0.4142135623730951
 10
-1067.079683651227
 20
905.3379507221068
 10
-1056.203570914765
 20
849.3852012655892
 42
-0.4142135623730951
 10
-1071.229116488116
 20
827.1089138679265
 42
-0.4142135623730763
 10
-1093.505403885775
 20
842.1344594412785
 10
-1104.381516622239
 20
898.0872088977953
 42
0.9999999999999998
 10
-1141.683349593249
 20
890.8364670734867
 10
-1130.807236856786
 20
834.8837176169695
 42
-0.9999999999999998
 10
-1168.109069827798
 20
827.6329757926614
 10
-1178.98518256426
 20
883.5857252491782
 42
0.4142135623730951
 10
-1201.26146996192
 20
898.6112708225295
 42
0.4142135623730951
 10
-1216.287015535273
 20
876.3349834248701
 10
-1205.41090279881
 20
820.3822339683526
 42
-0.4142135623730951
 10
-1220.436448372162
 20
798.1059465706923
 42
-0.4142135623730911
 10
-1242.712735769821
 20
813.1314921440441
 10
-1253.588848506284
 20
869.084241600561
 42
0.4142135623730951
 10
-1275.865135903943
 20
884.1097871739123
 42
0.4142135623730951
 10
-1290.890681477297
 20
861.8334997762529
 10
-1280.014568740834
 20
805.8807503197353
 42
-0.9999999999999998
 10
-1317.316401711845
 20
798.6300084954268
 10
-1328.192514448308
 20
854.5827579519434
 42
0.9999999999999998
 10
-1365.494347419319
 20
847.3320161276349
 10
-1354.618234682855
 20
791.3792666711183
 42
-0.3846416800657553
 10
-1367.763356345052
 20
769.5691157667936
 42
-0.3590366865768526
  0
LWPOLYLINE
  5
F7B4
330
18
100
AcDbEntity
  8
LAFARGE99-I--
  6
Continuous
 48
0.5
100
AcDbPolyline
 90
        2
 70
     0
 43
0.0
 10
-622.7076904661819
 20
1011.070733333706
 10
-1367.763356345047
 20
866.2465826753642
  0
LWPOLYLINE
  5
F7B5
330
18
100
AcDbEntity
  8
LAFARGE99-I--
  6
Continuous
 48
0.5
100
AcDbPolyline
 90
       52
 70
     0
 43
0.0
 10
-622.707690466182
 20
1011.093466988709
 42
-0.4284829294488742
 10
-645.8834082336377
 20
1025.921447353731
 10
-656.7595209701005
 20
1081.874196810248
 42
0.4142135623730951
 10
-679.0358083677599
 20
1096.899742383599
 42
0.4142135623730951
 10
-694.0613539411131
 20
1074.62345498594
 10
-683.1852412046503
 20
1018.670705529422
 42
-0.4142135623730951
 10
-698.2107867780018
 20
996.394418131762
 42
-0.4142135623730911
 10
-720.4870741756614
 20
1011.419963705114
 10
-731.3631869121243
 20
1067.37271316163
 42
0.4142135623730951
 10
-753.6394743097837
 20
1082.398258734982
 42
0.4142135623730951
 10
-768.6650198831369
 20
1060.121971337322
 10
-757.788907146674
 20
1004.169221880805
 42
-0.9999999999999998
 10
-795.0907401176857
 20
996.9184800564967
 10
-805.9668528541486
 20
1052.871229513013
 42
1.0
 10
-843.2686858251598
 20
1045.620487688705
 10
-832.3925730886974
 20
989.6677382321872
 42
-0.9999999999999998
 10
-869.6944060597088
 20
982.4169964078791
 10
-880.5705187961716
 20
1038.369745864396
 42
0.4142135623730951
 10
-902.846806193831
 20
1053.395291437747
 42
0.4142135623730951
 10
-917.8723517671842
 20
1031.119004040088
 10
-906.9962390307214
 20
975.1662545835706
 42
-0.4142135623730951
 10
-922.021784604073
 20
952.8899671859075
 42
-0.4142135623730763
 10
-944.2980720017317
 20
967.9155127592599
 10
-955.1741847381954
 20
1023.868262215776
 42
0.9999999999999998
 10
-992.4760177092052
 20
1016.617520391468
 10
-981.5999049727425
 20
960.6647709349509
 42
-0.9999999999999998
 10
-1018.901737943754
 20
953.4140291106428
 10
-1029.777850680217
 20
1009.36677856716
 42
0.4142135623730951
 10
-1052.054138077876
 20
1024.392324140511
 42
0.4142135623730951
 10
-1067.079683651229
 20
1002.116036742851
 10
-1056.203570914767
 20
946.1632872863338
 42
-0.4142135623730951
 10
-1071.229116488118
 20
923.8869998886711
 42
-0.4142135623730763
 10
-1093.505403885777
 20
938.9125454620229
 10
-1104.381516622241
 20
994.8652949185397
 42
0.9999999999999998
 10
-1141.68334959325
 20
987.6145530942313
 10
-1130.807236856788
 20
931.6618036377139
 42
-0.9999999999999998
 10
-1168.109069827799
 20
924.4110618134058
 10
-1178.985182564262
 20
980.3638112699227
 42
0.4142135623730951
 10
-1201.261469961921
 20
995.3893568432741
 42
0.4142135623730951
 10
-1216.287015535275
 20
973.1130694456146
 10
-1205.410902798812
 20
917.1603199890974
 42
-0.4142135623730951
 10
-1220.436448372163
 20
894.8840325914371
 42
-0.4142135623730911
 10
-1242.712735769823
 20
909.9095781647887
 10
-1253.588848506286
 20
965.8623276213056
 42
0.4142135623730951
 10
-1275.865135903945
 20
980.887873194657
 42
0.4142135623730951
 10
-1290.890681477298
 20
958.6115857969975
 10
-1280.014568740836
 20
902.6588363404798
 42
-0.9999999999999998
 10
-1317.316401711847
 20
895.4080945161713
 10
-1328.19251444831
 20
951.3608439726882
 42
0.9999999999999998
 10
-1365.494347419321
 20
944.1101021483795
 10
-1354.618234682857
 20
888.1573526918627
 42
-0.3846416800656932
 10
-1367.76335634505
 20
866.3472017875397
 42
-0.3846416800656932
  0
LWPOLYLINE
  5
F7B6
330
18
100
AcDbEntity
  8
LAFARGE99-I--
  6
Continuous
 48
0.5
100
AcDbPolyline
 90
        2
 70
     0
 43
0.0
 10
-622.7076904661819
 20
1107.848819354452
 10
-1367.763356345047
 20
963.0246686961095
  0
INSERT
  5
FD77
330
18
100
AcDbEntity
  8
LAFARGE99-T--
100
AcDbBlockReference
  2
A$C6D67221A
 10
-704.5218509037461
 20
898.3895855152624
 30
0.0
  0
LWPOLYLINE
  5
FD78
330
18
100
AcDbEntity
  8
LAFARGE99-I--
  6
Continuous
 48
0.5
100
AcDbPolyline
 90
       27
 70
     0
 43
0.0
 10
-695.2592220427346
 20
850.737491009904
 42
-0.584977306311026
 10
-711.8064789024568
 20
856.224929474712
 10
-717.5307487637532
 20
885.6737449781419
 42
0.9999999999999998
 10
-737.1632924327062
 20
881.8575650706113
 10
-731.439022571409
 20
852.4087495671812
 42
-0.9999999999999998
 10
-751.0715662403621
 20
848.5925696596503
 10
-756.7958361016593
 20
878.0413851630804
 42
0.9999999999999998
 10
-776.4283797706115
 20
874.2252052555492
 10
-770.7041099093161
 20
844.7763897521193
 42
-0.9999999999999998
 10
-790.3366535782692
 20
840.9602098445883
 10
-796.0609234395655
 20
870.4090253480185
 42
0.4142135623730873
 10
-807.7852852278086
 20
878.31720722873
 42
0.4142135623730951
 10
-815.6934671085194
 20
866.5928454404875
 10
-809.9691972472232
 20
837.1440299370576
 42
-0.9999999999999998
 10
-829.6017409161763
 20
833.3278500295266
 10
-835.3260107774726
 20
862.7766655329562
 42
1.0
 10
-854.9585544464266
 20
858.9604856254261
 10
-849.2342845851302
 20
829.511670121996
 42
-0.9999999999999998
 10
-868.8668282540842
 20
825.695490214465
 10
-874.5910981153796
 20
855.1443057178952
 42
0.9999999999999998
 10
-894.2236417843327
 20
851.3281258103646
 10
-888.4993719230372
 20
821.8793103069344
 42
-0.9999999999999998
 10
-908.1319155919903
 20
818.0631303994031
 10
-913.8561854532875
 20
847.5119459028334
 42
0.9999999999999998
 10
-933.4887291222388
 20
843.6957659953025
 10
-927.7644592609433
 20
814.2469504918723
 42
-0.5698714599901283
 10
-940.6227783098287
 20
802.8127937345773
  0
LWPOLYLINE
  5
FD79
330
18
100
AcDbEntity
  8
LAFARGE99-I--
  6
Continuous
 48
0.5
100
AcDbPolyline
 90
        4
 70
     0
 43
0.0
 10
-622.7076904661819
 20
910.4658392894055
 42
0.7091241437535519
 10
-639.0005740879392
 20
900.938464608264
 10
-633.2763042266439
 20
871.4896491048339
 42
-0.5698714599901283
 10
-646.1346232755292
 20
860.0554923475387
  0
LINE
  5
FD8E
330
18
100
AcDbEntity
  8
LAFARGE99-O--
100
AcDbLine
 10
-2187.81902222392
 20
850.1134955308188
 30
0.0
 11
-1405.263356345056
 21
698.0000832797761
 31
0.0
  0
LINE
  5
FD8F
330
18
100
AcDbEntity
  8
LAFARGE99-O--
100
AcDbLine
 10
-1405.263356345056
 20
684.7567662453586
 30
0.0
 11
-2187.819022223921
 21
836.8701784964002
 31
0.0
  0
LINE
  5
FD90
330
18
100
AcDbEntity
  8
LAFARGE99-T--
 62
    30
100
AcDbLine
 10
-1557.28958430881
 20
1005.660646191186
 30
0.0
 11
-2187.819022223902
 21
1128.223153253582
 31
0.0
  0
LINE
  5
FD91
330
18
100
AcDbEntity
  8
LAFARGE99-T--
 62
    30
100
AcDbLine
 10
-1605.009964757569
 20
1053.647782903285
 30
0.0
 11
-2187.819022223902
 21
1166.93438766188
 31
0.0
  0
LINE
  5
FD92
330
18
100
AcDbEntity
  8
LAFARGE99-O--
100
AcDbLine
 10
-2187.819022223919
 20
863.3568125652363
 30
0.0
 11
-1405.263356345055
 21
711.2434003141938
 31
0.0
  0
LWPOLYLINE
  5
FD96
330
18
100
AcDbEntity
  8
LAFARGE99-I--
  6
Continuous
 48
0.5
100
AcDbPolyline
 90
        2
 70
     0
 43
0.0
 10
-2187.819022223913
 20
1011.070733333742
 10
-1442.763356345054
 20
866.246582675366
  0
LWPOLYLINE
  5
FD98
330
18
100
AcDbEntity
  8
LAFARGE99-I--
  6
Continuous
 48
0.5
100
AcDbPolyline
 90
        2
 70
     0
 43
0.0
 10
-2187.819022223908
 20
1107.848819354487
 10
-1442.763356345049
 20
963.0246686961113
  0
INSERT
  5
FD9B
330
18
100
AcDbEntity
  8
LAFARGE99-T--
100
AcDbBlockReference
  2
A$C6D67221A
 10
-2106.004861786354
 20
898.389585515294
 30
0.0
 41
-1.0
 50
359.9999999999974
  0
LWPOLYLINE
  5
FD9C
330
18
100
AcDbEntity
  8
LAFARGE99-I--
  6
Continuous
 48
0.5
100
AcDbPolyline
 90
       27
 70
     0
 43
0.0
 10
-2115.267490647368
 20
850.7374910099361
 42
0.584977306311026
 10
-2098.720233787645
 20
856.2249294747434
 10
-2092.995963926347
 20
885.673744978173
 42
-0.9999999999999998
 10
-2073.363420257394
 20
881.8575650706415
 10
-2079.087690118693
 20
852.4087495672116
 42
0.9999999999999998
 10
-2059.45514644974
 20
848.5925696596797
 10
-2053.730876588442
 20
878.0413851631097
 42
-0.9999999999999998
 10
-2034.098332919489
 20
874.2252052555777
 10
-2039.822602780786
 20
844.7763897521479
 42
0.9999999999999998
 10
-2020.190059111833
 20
840.9602098446162
 10
-2014.465789250535
 20
870.409025348046
 42
-0.4142135623730873
 10
-2002.741427462292
 20
878.317207228757
 42
-0.4142135623730951
 10
-1994.833245581581
 20
866.5928454405142
 10
-2000.55751544288
 20
837.1440299370844
 42
0.9999999999999998
 10
-1980.924971773927
 20
833.3278500295527
 10
-1975.200701912629
 20
862.776665532982
 42
-1.0
 10
-1955.568158243675
 20
858.9604856254508
 10
-1961.292428104972
 20
829.5116701220212
 42
0.9999999999999998
 10
-1941.659884436019
 20
825.6954902144894
 10
-1935.935614574722
 20
855.144305717919
 42
-0.9999999999999998
 10
-1916.303070905769
 20
851.3281258103875
 10
-1922.027340767066
 20
821.8793103069579
 42
0.9999999999999998
 10
-1902.394797098113
 20
818.0631303994255
 10
-1896.670527236814
 20
847.5119459028556
 42
-0.9999999999999998
 10
-1877.037983567863
 20
843.6957659953236
 10
-1882.76225342916
 20
814.246950491894
 42
0.5698714599901283
 10
-1869.903934380275
 20
802.8127937345985
  0
LWPOLYLINE
  5
FD9D
330
18
100
AcDbEntity
  8
LAFARGE99-I--
  6
Continuous
 48
0.5
100
AcDbPolyline
 90
        4
 70
     0
 43
0.0
 10
-2187.819022223917
 20
910.4658392894407
 42
-0.7091241437535519
 10
-2171.52613860216
 20
900.9384646082985
 10
-2177.250408463458
 20
871.4896491048689
 42
0.5698714599901283
 10
-2164.392089414572
 20
860.0554923475732
  0
LINE
  5
105E0
330
18
100
AcDbEntity
  8
LAFARGE99--T-
 62
     8
100
AcDbLine
 10
-933.0646681506925
 20
1057.425595032528
 30
0.0
 11
-1003.542261029305
 21
1262.01584428403
 31
0.0
  0
LWPOLYLINE
  5
105E1
330
18
100
AcDbEntity
  8
LAFARGE99--T-
 62
     8
100
AcDbPolyline
 90
        2
 70
     1
 43
3.281249999999998
 10
-934.6406726898381
 20
1056.969678282213
 42
-1.0
 10
-931.4886636115472
 20
1057.881511782843
 42
-1.0
  0
LWPOLYLINE
  5
105E9
330
18
100
AcDbEntity
  8
LAFARGE99-I--
  6
Continuous
 48
0.5
100
AcDbPolyline
 90
       52
 70
     0
 43
0.0
 10
-2187.819022223917
 20
914.3153809680047
 42
0.4284829294488452
 10
-2164.643304456463
 20
929.1433613330264
 10
-2153.767191719997
 20
985.0961107895427
 42
-0.4142135623730951
 10
-2131.490904322337
 20
1000.121656362892
 42
-0.4142135623730951
 10
-2116.465358748985
 20
977.8453689652327
 10
-2127.341471485451
 20
921.8926195087156
 42
0.4142135623730951
 10
-2112.3159259121
 20
899.6163321110545
 42
0.4142135623730911
 10
-2090.03963851444
 20
914.6418776844052
 10
-2079.163525777975
 20
970.5946271409215
 42
-0.4142135623730951
 10
-2056.887238380314
 20
985.6201727142716
 42
-0.4142135623730951
 10
-2041.861692806962
 20
963.3438853166115
 10
-2052.737805543427
 20
907.3911358600945
 42
0.9999999999999998
 10
-2015.435972572416
 20
900.1403940357841
 10
-2004.559859835951
 20
956.0931434923
 42
-1.0
 10
-1967.258026864939
 20
948.8424016679896
 10
-1978.134139601405
 20
892.8896522114728
 42
0.9999999999999998
 10
-1940.832306630394
 20
885.6389103871629
 10
-1929.956193893928
 20
941.591659843679
 42
-0.4142135623730951
 10
-1907.679906496268
 20
956.6172054170293
 42
-0.4142135623730951
 10
-1892.654360922916
 20
934.3409180193688
 10
-1903.530473659382
 20
878.3881685628522
 42
0.4142135623730951
 10
-1888.504928086031
 20
856.1118811651885
 42
0.4142135623730763
 10
-1866.228640688372
 20
871.1374267385394
 10
-1855.352527951905
 20
927.0901761950556
 42
-0.9999999999999998
 10
-1818.050694980896
 20
919.839434370745
 10
-1828.926807717362
 20
863.8866849142281
 42
0.9999999999999998
 10
-1791.62497474635
 20
856.6359430899183
 10
-1780.748862009884
 20
912.5886925464346
 42
-0.4142135623730951
 10
-1758.472574612224
 20
927.6142381197846
 42
-0.4142135623730951
 10
-1743.447029038872
 20
905.3379507221245
 10
-1754.323141775338
 20
849.3852012656075
 42
0.4142135623730951
 10
-1739.297596201988
 20
827.1089138679439
 42
0.4142135623730763
 10
-1717.021308804328
 20
842.1344594412948
 10
-1706.145196067861
 20
898.0872088978113
 42
-0.9999999999999998
 10
-1668.843363096852
 20
890.8364670735004
 10
-1679.719475833318
 20
834.8837176169839
 42
0.9999999999999998
 10
-1642.417642862306
 20
827.6329757926736
 10
-1631.541530125841
 20
883.5857252491901
 42
-0.4142135623730951
 10
-1609.265242728181
 20
898.6112708225403
 42
-0.4142135623730951
 10
-1594.239697154829
 20
876.3349834248801
 10
-1605.115809891294
 20
820.3822339683631
 42
0.4142135623730951
 10
-1590.090264317944
 20
798.1059465707021
 42
0.4142135623730911
 10
-1567.813976920283
 20
813.1314921440525
 10
-1556.937864183818
 20
869.084241600569
 42
-0.4142135623730951
 10
-1534.661576786158
 20
884.1097871739188
 42
-0.4142135623730951
 10
-1519.636031212806
 20
861.8334997762588
 10
-1530.512143949271
 20
805.8807503197417
 42
0.9999999999999998
 10
-1493.21031097826
 20
798.6300084954314
 10
-1482.334198241794
 20
854.5827579519473
 42
-0.9999999999999998
 10
-1445.032365270783
 20
847.3320161276369
 10
-1455.90847800725
 20
791.379266671121
 42
0.3846416800657553
 10
-1442.763356345055
 20
769.5691157667954
 42
0.3590366865768526
  0
LWPOLYLINE
  5
105EA
330
18
100
AcDbEntity
  8
LAFARGE99-I--
  6
Continuous
 48
0.5
100
AcDbPolyline
 90
       52
 70
     0
 43
0.0
 10
-2187.819022223913
 20
1011.093466988749
 42
0.4284829294488742
 10
-2164.643304456456
 20
1025.921447353771
 10
-2153.767191719991
 20
1081.874196810287
 42
-0.4142135623730951
 10
-2131.49090432233
 20
1096.899742383637
 42
-0.4142135623730951
 10
-2116.465358748978
 20
1074.623454985977
 10
-2127.341471485443
 20
1018.67070552946
 42
0.4142135623730951
 10
-2112.315925912093
 20
996.3944181317993
 42
0.4142135623730911
 10
-2090.039638514433
 20
1011.419963705149
 10
-2079.163525777967
 20
1067.372713161666
 42
-0.4142135623730951
 10
-2056.887238380307
 20
1082.398258735016
 42
-0.4142135623730951
 10
-2041.861692806955
 20
1060.121971337356
 10
-2052.737805543421
 20
1004.169221880839
 42
0.9999999999999998
 10
-2015.43597257241
 20
996.9184800565285
 10
-2004.559859835944
 20
1052.871229513044
 42
-1.0
 10
-1967.258026864933
 20
1045.620487688734
 10
-1978.134139601398
 20
989.6677382322172
 42
0.9999999999999998
 10
-1940.832306630387
 20
982.4169964079073
 10
-1929.956193893921
 20
1038.369745864423
 42
-0.4142135623730951
 10
-1907.679906496261
 20
1053.395291437773
 42
-0.4142135623730951
 10
-1892.654360922909
 20
1031.119004040113
 10
-1903.530473659375
 20
975.1662545835966
 42
0.4142135623730951
 10
-1888.504928086025
 20
952.8899671859331
 42
0.4142135623730763
 10
-1866.228640688365
 20
967.9155127592839
 10
-1855.352527951898
 20
1023.8682622158
 42
-0.9999999999999998
 10
-1818.050694980889
 20
1016.617520391489
 10
-1828.926807717354
 20
960.6647709349729
 42
0.9999999999999998
 10
-1791.624974746343
 20
953.4140291106627
 10
-1780.748862009877
 20
1009.366778567179
 42
-0.4142135623730951
 10
-1758.472574612217
 20
1024.392324140529
 42
-0.4142135623730951
 10
-1743.447029038865
 20
1002.116036742869
 10
-1754.323141775331
 20
946.1632872863521
 42
0.4142135623730951
 10
-1739.297596201981
 20
923.8869998886885
 42
0.4142135623730763
 10
-1717.021308804321
 20
938.9125454620394
 10
-1706.145196067854
 20
994.8652949185557
 42
-0.9999999999999998
 10
-1668.843363096845
 20
987.6145530942451
 10
-1679.719475833311
 20
931.6618036377285
 42
0.9999999999999998
 10
-1642.4176428623
 20
924.4110618134184
 10
-1631.541530125834
 20
980.3638112699346
 42
-0.4142135623730951
 10
-1609.265242728174
 20
995.389356843285
 42
-0.4142135623730951
 10
-1594.239697154822
 20
973.1130694456247
 10
-1605.115809891287
 20
917.1603199891078
 42
0.4142135623730951
 10
-1590.090264317937
 20
894.8840325914465
 42
0.4142135623730911
 10
-1567.813976920277
 20
909.9095781647973
 10
-1556.937864183811
 20
965.8623276213134
 42
-0.4142135623730951
 10
-1534.661576786151
 20
980.8878731946636
 42
-0.4142135623730951
 10
-1519.636031212798
 20
958.6115857970035
 10
-1530.512143949265
 20
902.6588363404865
 42
0.9999999999999998
 10
-1493.210310978253
 20
895.4080945161759
 10
-1482.334198241787
 20
951.3608439726921
 42
-0.9999999999999998
 10
-1445.032365270776
 20
944.1101021483815
 10
-1455.908478007243
 20
888.1573526918655
 42
0.3846416800656932
 10
-1442.763356345052
 20
866.3472017875415
 42
0.3846416800656932
  0
INSERT
  5
1070D
330
18
100
AcDbEntity
  8
LAFARGE99-T--
100
AcDbBlockReference
  2
38x73 lægte
 10
-1628.948368700503
 20
1019.589702853667
 30
0.0
 50
348.9999999999999
  0
ATTDEF
  5
10784
330
18
100
AcDbEntity
  8
0
100
AcDbText
 10
-1259.700773829981
 20
-978.0970841366142
 30
0.0
 40
20.0
  1
1.2.2005
  7
ARIAL-F
 11
-1259.700773829981
 21
-958.0970841366143
 31
0.0
100
AcDbAttributeDefinition
  3
Dato
  2
30.05.2012
 70
     0
 74
     3
  0
LINE
  5
107DF
330
18
100
AcDbEntity
  8
0
100
AcDbLine
 10
-501.5851759283013
 20
-937.4277868262488
 30
0.0
 11
-1371.585175928301
 21
-937.4277868262488
 31
0.0
  0
MTEXT
  5
107E0
330
18
100
AcDbEntity
  8
0
100
AcDbMText
 10
-1356.450445300629
 20
-958.0967368500928
 30
0.0
 40
20.0
 41
77.35910045700551
 71
     1
 72
     5
  1
Dato
  7
ARIAL
 73
     1
 44
1.0
  0
MTEXT
  5
107E1
330
18
100
AcDbEntity
  8
0
100
AcDbMText
 10
-1034.00541441771
 20
-957.4122759572778
 30
0.0
 40
20.0
 41
195.7142857142857
 71
     1
 72
     5
  1
Mål
  7
ARIAL
 73
     1
 44
1.0
  0
MTEXT
  5
107E2
330
18
100
AcDbEntity
  8
0
100
AcDbMText
 10
-826.8112842645424
 20
-958.0967368500928
 30
0.0
 40
20.0
 41
123.4966330743262
 71
     1
 72
     5
  1
Tegn.nr.
  7
ARIAL
 73
     1
 44
1.0
  0
MTEXT
  5
107E3
330
18
100
AcDbEntity
  8
0
100
AcDbMText
 10
-1272.365442966689
 20
-958.0967368500928
 30
0.0
 40
20.0
 41
77.35910045700551
 71
     1
 72
     5
  1
:
  7
ARIAL
 73
     1
 44
1.0
  0
MTEXT
  5
107E4
330
18
100
AcDbEntity
  8
0
100
AcDbMText
 10
-1272.365442966689
 20
-897.2210568500932
 30
0.0
 40
20.0
 41
77.35910045700551
 71
     1
 72
     5
  1
:
  7
ARIAL
 73
     1
 44
1.0
  0
MTEXT
  5
107E5
330
18
100
AcDbEntity
  8
0
100
AcDbMText
 10
-1356.450445300629
 20
-897.2210568500932
 30
0.0
 40
20.0
 41
77.35910045700551
 71
     1
 72
     5
  1
Emne
  7
ARIAL
 73
     1
 44
1.0
  0
MTEXT
  5
107E6
330
18
100
AcDbEntity
  8
0
100
AcDbMText
 10
-973.4368486725033
 20
-958.0967368500928
 30
0.0
 40
20.0
 41
77.35910045700551
 71
     1
 72
     5
  1
:
  7
ARIAL
 73
     1
 44
1.0
  0
MTEXT
  5
107E7
330
18
100
AcDbEntity
  8
0
100
AcDbMText
 10
-701.8403066883875
 20
-958.0967368500928
 30
0.0
 40
20.0
 41
77.35910045700551
 71
     1
 72
     5
  1
:
  7
ARIAL
 73
     1
 44
1.0
  0
MTEXT
  5
10821
330
18
100
AcDbEntity
  8
LAFARGE09-H--
100
AcDbMText
 10
-1257.442825201941
 20
-844.0182295783133
 30
0.0
 40
25.0
 41
787.6497433784797
 71
     1
 72
     5
  1
Konstruktion med B&C Danflock{\H1.0833x;®\H0.92311x; tagsten}
  7
ARIAL-F
 73
     1
 44
1.0
  0
MTEXT
  5
10824
330
18
100
AcDbEntity
  8
0
100
AcDbMText
 10
-1248.768927008496
 20
-897.5295581501754
 30
0.0
 40
20.0
 41
571.0900666490906
 71
     1
 72
     5
  1
Skotrende, - 25 gr.
  7
ARIAL-F
 73
     1
 44
1.0
1001
ACAD
1000
ACAD_MTEXT_COLUMN_INFO_BEGIN
1070
    75
1070
     2
1070
    79
1070
     0
1070
    76
1070
     1
1070
    78
1070
     0
1070
    48
1040
571.0900666490906
1070
    49
1040
12.5
1070
    50
1070
     1
1040
0.0
1000
ACAD_MTEXT_COLUMN_INFO_END
  0
MTEXT
  5
10825
330
18
100
AcDbEntity
  8
0
100
AcDbMText
 10
-950.2082638920837
 20
-961.3602683507261
 30
0.0
 40
20.0
 41
134.1546614692263
 71
     1
 72
     5
  1
1:10
  7
ARIAL-F
 73
     1
 44
1.0
1001
ACAD
1000
ACAD_MTEXT_COLUMN_INFO_BEGIN
1070
    75
1070
     2
1070
    79
1070
     0
1070
    76
1070
     1
1070
    78
1070
     0
1070
    48
1040
134.1546614692263
1070
    49
1040
12.5
1070
    50
1070
     1
1040
0.0
1000
ACAD_MTEXT_COLUMN_INFO_END
  0
MTEXT
  5
10826
330
18
100
AcDbEntity
  8
0
100
AcDbMText
 10
-669.7329220040155
 20
-962.0241237396513
 30
0.0
 40
20.0
 41
134.1546614692263
 71
     1
 72
     5
  1
9.A-4-25
  7
ARIAL-F
 73
     1
 44
1.0
1001
ACAD
1000
ACAD_MTEXT_COLUMN_INFO_BEGIN
1070
    75
1070
     2
1070
    79
1070
     0
1070
    76
1070
     1
1070
    78
1070
     0
1070
    48
1040
134.1546614692263
1070
    49
1040
12.5
1070
    50
1070
     1
1040
0.0
1000
ACAD_MTEXT_COLUMN_INFO_END
  0
MTEXT
  5
10A7F
330
18
100
AcDbEntity
  8
LAFARGE09-H--
100
AcDbMText
 10
-2046.132740621797
 20
-846.7837530491699
 30
0.0
 40
6.0
 41
703.808634600672
 71
     1
 72
     5
  1
{\fArial|b1|i0|c0|p34;\H10x;\C7;MONIER A/S\H0.1x;\P\fArial|b0|i0|c0|p34;\H3.6667x;More power to your roof\Pwww.monier.dk}
 73
     1
 44
1.0
  0
LINE
  5
10E5E
330
18
100
AcDbEntity
  8
LAFARGE99--S-2
100
AcDbLine
 10
-1552.507433862198
 20
1030.262677476345
 30
0.0
 11
-1410.039385003073
 21
977.0707907568308
 31
0.0
  0
LINE
  5
10E5F
330
18
100
AcDbEntity
  8
LAFARGE99--S-2
100
AcDbLine
 10
-1557.289584308824
 20
1005.66064619118
 30
0.0
 11
-1405.263356345049
 21
1001.641328169857
 31
0.0
  0
LWPOLYLINE
  5
10E60
330
18
100
AcDbEntity
  8
LAFARGE99-T--
100
AcDbPolyline
 90
        4
 70
     1
 43
0.0
 10
-1557.289584308824
 20
1005.66064619118
 10
-1410.039385003073
 20
977.0707907568308
 10
-1405.263356345049
 20
1001.641328169857
 10
-1552.519359424409
 20
1030.201325777379
  0
LINE
  5
10E61
330
18
100
AcDbEntity
  8
LAFARGE99-T--
 62
    30
100
AcDbLine
 10
-1181.578343989596
 20
1019.589702853667
 30
0.0
 11
-1188.829085813904
 21
1056.891535824679
 31
0.0
  0
LINE
  5
10E62
330
18
100
AcDbEntity
  8
LAFARGE99-T--
 62
    30
100
AcDbLine
 10
-1253.237128381289
 20
1005.660646191186
 30
0.0
 11
-622.7076904661968
 21
1128.223153253582
 31
0.0
  0
LINE
  5
10E63
330
18
100
AcDbEntity
  8
LAFARGE99-T--
 62
    30
100
AcDbLine
 10
-1188.829085813907
 20
1056.89153582469
 30
0.0
 11
-622.7076904661969
 21
1166.93438766188
 31
0.0
  0
INSERT
  5
10E64
330
18
100
AcDbEntity
  8
LAFARGE99-T--
100
AcDbBlockReference
  2
38x73 lægte
 10
-1181.578343989595
 20
1019.589702853667
 30
0.0
 41
-1.0
 50
11.00000000000004
  0
LINE
  5
10E66
330
18
100
AcDbEntity
  8
LAFARGE99--S-2
100
AcDbLine
 10
-1258.019278827901
 20
1030.262677476345
 30
0.0
 11
-1400.487327687025
 21
977.0707907568308
 31
0.0
  0
LINE
  5
10E67
330
18
100
AcDbEntity
  8
LAFARGE99--S-2
100
AcDbLine
 10
-1253.237128381275
 20
1005.66064619118
 30
0.0
 11
-1405.263356345049
 21
1001.641328169857
 31
0.0
  0
LWPOLYLINE
  5
10E68
330
18
100
AcDbEntity
  8
LAFARGE99-T--
100
AcDbPolyline
 90
        4
 70
     1
 43
0.0
 10
-1253.237128381275
 20
1005.66064619118
 10
-1400.487327687025
 20
977.0707907568308
 10
-1405.263356345049
 20
1001.641328169857
 10
-1258.00735326569
 20
1030.201325777379
  0
INSERT
  5
10E7B
330
18
100
AcDbEntity
  8
LAFARGE99-S--1
100
AcDbBlockReference
  2
skotrendeblik
 10
-26.25209814319919
 20
-300.0628548339912
 30
0.0
  0
LINE
  5
10E7C
330
18
100
AcDbEntity
  8
LAFARGE99-T--
100
AcDbLine
 10
-1405.263356345046
 20
977.0707907568308
 30
0.0
 11
-1367.763356345046
 21
977.0707907568308
 31
0.0
  0
LINE
  5
10E7D
330
18
100
AcDbEntity
  8
LAFARGE99-T--
100
AcDbLine
 10
-1367.763356345046
 20
977.0707907568308
 30
0.0
 11
-1367.763356345052
 21
769.4684966546183
 31
0.0
  0
LINE
  5
10E7E
330
18
100
AcDbEntity
  8
LAFARGE99-T--
100
AcDbLine
 10
-1367.763356345052
 20
769.4684966546183
 30
0.0
 11
-1442.763356345052
 21
769.4684966546183
 31
0.0
  0
LINE
  5
10E7F
330
18
100
AcDbEntity
  8
LAFARGE99-T--
100
AcDbLine
 10
-1442.763356345052
 20
769.4684966546183
 30
0.0
 11
-1442.763356345046
 21
977.0707907568308
 31
0.0
  0
LINE
  5
10E80
330
18
100
AcDbEntity
  8
LAFARGE99-T--
100
AcDbLine
 10
-1442.763356345046
 20
977.0707907568308
 30
0.0
 11
-1405.263356345046
 21
977.0707907568308
 31
0.0
  0
LINE
  5
10E82
330
18
100
AcDbEntity
  8
LAFARGE99-T--
100
AcDbLine
 10
-1442.76335634505
 20
769.4684966546183
 30
0.0
 11
-1442.763356345046
 21
983.4244229713595
 31
0.0
  0
LINE
  5
10E83
330
18
100
AcDbEntity
  8
LAFARGE99-T--
100
AcDbLine
 10
-1367.76335634505
 20
769.4684966546185
 30
0.0
 11
-1367.763356345046
 21
983.4244229713597
 31
0.0
  0
MTEXT
  5
10F38
330
18
100
AcDbEntity
  8
LAFARGE99--T-
100
AcDbMText
 10
-2185.958965031492
 20
1314.965602562096
 30
0.0
 40
17.5
 41
328.0058183433371
 71
     1
 72
     5
  1
B&C STRIPS
  7
ARIAL
 73
     1
 44
1.0
  0
LINE
  5
10F39
330
18
100
AcDbEntity
  8
LAFARGE99--T-
 62
     8
100
AcDbLine
 10
-1571.76437349517
 20
1071.916614040914
 30
0.0
 11
-1651.514345979391
 21
1303.423765206659
 31
0.0
  0
LWPOLYLINE
  5
10F3A
330
18
100
AcDbEntity
  8
LAFARGE99--T-
 62
     8
100
AcDbPolyline
 90
        2
 70
     1
 43
3.281249999999998
 10
-1573.340378034316
 20
1071.460697290599
 42
-1.0
 10
-1570.188368956025
 20
1072.37253079123
 42
-1.0
  0
LINE
  5
10F3B
330
18
100
AcDbEntity
  8
LAFARGE99--T-
 62
     8
100
AcDbLine
 10
-2005.475251647146
 20
1303.423765206664
 30
0.0
 11
-1651.514345979391
 21
1303.423765206659
 31
0.0
  0
HATCH
  5
10F3F
330
18
100
AcDbEntity
  8
LAFARGE99--T-
100
AcDbHatch
 10
0.0
 20
0.0
 30
0.0
210
0.0
220
0.0
230
1.0
  2
SOLID
 70
     1
 71
     0
 91
        2
 92
        1
 93
        5
 72
     1
 10
-1231.174383499928
 20
1080.349178782768
 11
-1229.531858019119
 21
1076.112904889889
 72
     1
 10
-1229.531858019119
 20
1076.112904889889
 11
-1238.997537073707
 21
1048.634871687928
 72
     1
 10
-1238.997537073707
 20
1048.634871687928
 11
-1250.500887952385
 21
1046.29137147466
 72
     1
 10
-1250.500887952385
 20
1046.29137147466
 11
-1253.143419985405
 21
1061.27791535128
 72
     2
 10
-6809.455095388567
 20
7484.029621767374
 40
8492.604954693957
 50
310.863027402272
 51
311.0592989491882
 73
     1
 97
        0
 92
        1
 93
        3
 72
     1
 10
-1229.531858019119
 20
1076.112904889889
 11
-1220.728847068177
 21
1052.356628885078
 72
     1
 10
-1220.728847068177
 20
1052.356628885078
 11
-1238.997537073707
 21
1048.634871687928
 72
     1
 10
-1238.997537073707
 20
1048.634871687928
 11
-1229.531858019119
 21
1076.112904889889
 97
        0
 75
     1
 76
     1
 98
        2
 10
-1246.674865721674
 20
1071.110333441603
 10
-1226.245749605328
 20
1060.337162268625
450
        0
451
        0
460
0.0
461
0.0
452
        0
462
1.0
453
        2
463
0.0
 63
     5
421
      255
463
1.0
 63
     2
421
 16776960
470
LINEAR
1001
GradientColor1ACI
1070
     5
1001
GradientColor2ACI
1070
     2
1001
ACAD
1010
0.0
1020
0.0
1030
0.0
  0
LINE
  5
10F40
330
18
100
AcDbEntity
  8
LAFARGE99--T-
100
AcDbLine
 10
-1220.728847068177
 20
1052.356628885078
 30
0.0
 11
-1231.174383499928
 21
1080.349178782768
 31
0.0
  0
LINE
  5
10F41
330
18
100
AcDbEntity
  8
LAFARGE99--T-
100
AcDbLine
 10
-1253.143419985404
 20
1061.277915351281
 30
0.0
 11
-1250.500887952385
 21
1046.29137147466
 31
0.0
  0
LINE
  5
10F42
330
18
100
AcDbEntity
  8
LAFARGE99--T-
100
AcDbLine
 10
-1250.500887952385
 20
1046.29137147466
 30
0.0
 11
-1220.728847068177
 21
1052.356628885078
 31
0.0
  0
INSERT
  5
10FDA
330
18
100
AcDbEntity
  8
LAFARGE99--S-2
100
AcDbBlockReference
  2
B&C dobbltvinget
 10
-1003.805978323997
 20
1077.437133721036
 30
0.0
 50
11.0
  0
INSERT
  5
110E6
330
18
100
AcDbEntity
  8
SX$17
100
AcDbBlockReference
  2
B&C dobbltvinget2
 10
-1241.824714899645
 20
1114.229505131951
 30
0.0
  0
INSERT
  5
1111C
330
18
100
AcDbEntity
  8
SX$17
100
AcDbBlockReference
  2
B&C dobbltvinget3
 10
-785.3321408658392
 20
1154.241607622342
 30
0.0
  0
HATCH
  5
1111D
330
18
100
AcDbEntity
  8
LAFARGE99--T-
100
AcDbHatch
 10
0.0
 20
0.0
 30
0.0
210
0.0
220
0.0
230
1.0
  2
SOLID
 70
     1
 71
     0
 91
        2
 92
        1
 93
        5
 72
     1
 10
-1579.352329190166
 20
1080.349178782768
 11
-1580.994854670975
 21
1076.112904889889
 72
     1
 10
-1580.994854670975
 20
1076.112904889889
 11
-1571.529175616387
 21
1048.634871687928
 72
     1
 10
-1571.529175616387
 20
1048.634871687928
 11
-1560.025824737709
 21
1046.29137147466
 72
     1
 10
-1560.025824737709
 20
1046.29137147466
 11
-1557.38329270469
 21
1061.27791535128
 72
     2
 10
3998.928382698473
 20
7484.029621767374
 40
8492.604954693957
 50
130.863027402272
 51
131.0592989491882
 73
     0
 97
        0
 92
        1
 93
        3
 72
     1
 10
-1580.994854670975
 20
1076.112904889889
 11
-1589.797865621917
 21
1052.356628885078
 72
     1
 10
-1589.797865621917
 20
1052.356628885078
 11
-1571.529175616387
 21
1048.634871687928
 72
     1
 10
-1571.529175616387
 20
1048.634871687928
 11
-1580.994854670975
 21
1076.112904889889
 97
        0
 75
     1
 76
     1
 98
        2
 10
-1563.851846968421
 20
1071.110333441603
 10
-1584.280963084766
 20
1060.337162268625
450
        0
451
        0
460
0.0
461
0.0
452
        0
462
1.0
453
        2
463
0.0
 63
     5
421
      255
463
1.0
 63
     2
421
 16776960
470
LINEAR
1001
GradientColor1ACI
1070
     5
1001
GradientColor2ACI
1070
     2
1001
ACAD
1010
0.0
1020
0.0
1030
0.0
  0
LINE
  5
1111E
330
18
100
AcDbEntity
  8
LAFARGE99--T-
100
AcDbLine
 10
-1589.797865621917
 20
1052.356628885078
 30
0.0
 11
-1579.352329190166
 21
1080.349178782768
 31
0.0
  0
INSERT
  5
1111F
330
18
100
AcDbEntity
  8
LAFARGE99--S-2
100
AcDbBlockReference
  2
B&C dobbltvinget
 10
-1806.720734366097
 20
1077.437133721036
 30
0.0
 41
-1.0
 50
348.9999999999999
  0
INSERT
  5
11120
330
18
100
AcDbEntity
  8
SX$17
100
AcDbBlockReference
  2
B&C dobbltvinget2
 10
-1568.701997790449
 20
1114.229505131951
 30
0.0
 41
-1.0
  0
INSERT
  5
11121
330
18
100
AcDbEntity
  8
SX$17
100
AcDbBlockReference
  2
B&C dobbltvinget3
 10
-2025.194571824255
 20
1154.241607622342
 30
0.0
 41
-1.0
  0
ENDSEC
  0
SECTION
  2
OBJECTS
  0
DICTIONARY
  5
C
330
0
100
AcDbDictionary
281
     1
  3
ACAD_2007HEADERVARS_RT
350
11178
  3
ACAD_CIP_PREVIOUS_PRODUCT_INFO
350
1080D
  3
ACAD_COLOR
350
8E
  3
ACAD_GROUP
350
D
  3
ACAD_IMAGE_DICT
350
1081D
  3
ACAD_IMAGE_VARS
350
10820
  3
ACAD_LAYOUT
350
8F
  3
ACAD_MATERIAL
350
8D
  3
ACAD_MLEADERSTYLE
350
10806
  3
ACAD_MLINESTYLE
350
1B
  3
ACAD_PLOTSETTINGS
350
90
  3
ACAD_PLOTSTYLENAME
350
8B
  3
ACAD_SCALELIST
350
107F4
  3
ACAD_TABLESTYLE
350
1077B
  3
ACAD_VISUALSTYLE
350
1076A
  3
ACDB_RECOMPOSE_DATA
350
11177
  3
AcDbVariableDictionary
350
49F
  3
BNS_VARIABLES
350
E029
  0
DICTIONARY
  5
BE
330
2
100
AcDbDictionary
280
     1
281
     1
  3
ACAD_LAYERFILTERS
360
A6A
  3
ACAD_LAYERSTATES
360
BF
  0
DICTIONARY
  5
10982
330
E
100
AcDbDictionary
280
     1
281
     1
  3
ADSK_XREC_LAYER_RECONCILED
360
10983
  0
DICTIONARY
  5
10984
330
20
100
AcDbDictionary
280
     1
281
     1
  3
ADSK_XREC_LAYER_RECONCILED
360
10985
  0
DICTIONARY
  5
10986
330
29
100
AcDbDictionary
280
     1
281
     1
  3
ADSK_XREC_LAYER_RECONCILED
360
10987
  0
DICTIONARY
  5
10988
330
2F
100
AcDbDictionary
280
     1
281
     1
  3
ADSK_XREC_LAYER_RECONCILED
360
10989
  0
DICTIONARY
  5
1098A
330
3E
100
AcDbDictionary
280
     1
281
     1
  3
ADSK_XREC_LAYER_RECONCILED
360
1098B
  0
DICTIONARY
  5
1098C
330
44
100
AcDbDictionary
280
     1
281
     1
  3
ADSK_XREC_LAYER_RECONCILED
360
1098D
  0
DICTIONARY
  5
1098E
330
69
100
AcDbDictionary
280
     1
281
     1
  3
ADSK_XREC_LAYER_RECONCILED
360
1098F
  0
DICTIONARY
  5
10990
330
6C
100
AcDbDictionary
280
     1
281
     1
  3
ADSK_XREC_LAYER_RECONCILED
360
10991
  0
DICTIONARY
  5
10992
330
6D
100
AcDbDictionary
280
     1
281
     1
  3
ADSK_XREC_LAYER_RECONCILED
360
10993
  0
DICTIONARY
  5
10994
330
A1
100
AcDbDictionary
280
     1
281
     1
  3
ADSK_XREC_LAYER_RECONCILED
360
10995
  0
DICTIONARY
  5
10996
330
A94
100
AcDbDictionary
280
     1
281
     1
  3
ADSK_XREC_LAYER_RECONCILED
360
10997
  0
DICTIONARY
  5
10998
330
A98
100
AcDbDictionary
280
     1
281
     1
  3
ADSK_XREC_LAYER_RECONCILED
360
10999
  0
DICTIONARY
  5
1099A
330
A99
100
AcDbDictionary
280
     1
281
     1
  3
ADSK_XREC_LAYER_RECONCILED
360
1099B
  0
DICTIONARY
  5
1099C
330
A9A
100
AcDbDictionary
280
     1
281
     1
  3
ADSK_XREC_LAYER_RECONCILED
360
1099D
  0
DICTIONARY
  5
1099E
330
AA5
100
AcDbDictionary
280
     1
281
     1
  3
ADSK_XREC_LAYER_RECONCILED
360
1099F
  0
DICTIONARY
  5
109A0
330
AA9
100
AcDbDictionary
280
     1
281
     1
  3
ADSK_XREC_LAYER_RECONCILED
360
109A1
  0
DICTIONARY
  5
10FD0
330
10FCF
100
AcDbDictionary
280
     1
281
     1
  0
DICTIONARY
  5
6578
330
18
100
AcDbDictionary
280
     1
281
     1
  3
ACAD_SORTENTS
360
6579
  0
DICTIONARY
  5
C9DB
330
C9DA
100
AcDbDictionary
280
     1
281
     1
  3
ACAD_SORTENTS
360
FBF5
  0
DICTIONARY
  5
10BC5
330
D86E
100
AcDbDictionary
280
     1
281
     1
  3
ACAD_SORTENTS
360
10BC6
  0
DICTIONARY
  5
EC05
330
EC01
100
AcDbDictionary
280
     1
281
     1
  3
ACAD_SORTENTS
360
FBF4
  0
DICTIONARY
  5
F072
330
F06B
100
AcDbDictionary
280
     1
281
     1
  3
ACAD_SORTENTS
360
FBF6
  0
DICTIONARY
  5
10BF4
330
F495
100
AcDbDictionary
280
     1
281
     1
  3
ACAD_SORTENTS
360
10BF5
  0
DICTIONARY
  5
F7FF
330
F7FE
100
AcDbDictionary
280
     1
281
     1
  3
ACAD_SORTENTS
360
FCDD
  0
DICTIONARY
  5
10AF1
330
FD4E
100
AcDbDictionary
280
     1
281
     1
  3
ACAD_SORTENTS
360
10AF2
  0
DICTIONARY
  5
FDAD
330
FDAC
100
AcDbDictionary
280
     1
281
     1
  3
ACAD_SORTENTS
360
FDAE
  0
DICTIONARY
  5
11178
102
{ACAD_REACTORS
330
C
102
}
330
C
100
AcDbDictionary
281
     1
  3
INTERFEREVPVS
350
11179
  0
XRECORD
  5
1080D
102
{ACAD_REACTORS
330
C
102
}
330
C
100
AcDbXrecord
280
     1
300
ACD
300
2012
300
REVITS_F_S
  0
DICTIONARY
  5
8E
102
{ACAD_REACTORS
330
C
102
}
330
C
100
AcDbDictionary
281
     1
  0
DICTIONARY
  5
D
102
{ACAD_REACTORS
330
C
102
}
330
C
100
AcDbDictionary
281
     1
  3
*A1
350
E708
  0
DICTIONARY
  5
1081D
102
{ACAD_REACTORS
330
C
102
}
330
C
100
AcDbDictionary
281
     1
  3
Monier_Logo_CMYK
350
1081E
  0
RASTERVARIABLES
  5
10820
102
{ACAD_REACTORS
330
C
102
}
330
C
100
AcDbRasterVariables
 90
        0
 70
     1
 71
     1
 72
     0
  0
DICTIONARY
  5
8F
102
{ACAD_REACTORS
330
C
102
}
330
C
100
AcDbDictionary
281
     1
  3
Layout1
350
10753
  3
Model
350
91
  0
DICTIONARY
  5
8D
102
{ACAD_REACTORS
330
C
102
}
330
C
100
AcDbDictionary
281
     1
  3
ByBlock
350
10768
  3
ByLayer
350
10767
  3
Global
350
10769
  0
DICTIONARY
  5
10806
102
{ACAD_REACTORS
330
C
102
}
330
C
100
AcDbDictionary
281
     1
  3
Standard
350
10807
  0
DICTIONARY
  5
1B
102
{ACAD_REACTORS
330
C
102
}
330
C
100
AcDbDictionary
281
     1
  3
STANDARD
350
1C
  0
DICTIONARY
  5
90
102
{ACAD_REACTORS
330
C
102
}
330
C
100
AcDbDictionary
281
     1
  0
ACDBDICTIONARYWDFLT
  5
8B
102
{ACAD_REACTORS
330
C
102
}
330
C
100
AcDbDictionary
281
     1
  3
Normal
350
8C
100
AcDbDictionaryWithDefault
340
8C
  0
DICTIONARY
  5
107F4
102
{ACAD_REACTORS
330
C
102
}
330
C
100
AcDbDictionary
281
     1
  3
A0
350
107F5
  3
A1
350
107F6
  3
A2
350
107F7
  3
A3
350
107F8
  3
A4
350
107F9
  3
A5
350
107FA
  3
A6
350
107FB
  3
A7
350
107FC
  3
A8
350
107FD
  3
A9
350
107FE
  3
B0
350
107FF
  3
B1
350
10800
  3
B2
350
10801
  3
B3
350
10802
  3
B4
350
10803
  3
B5
350
10804
  3
B6
350
10805
  0
DICTIONARY
  5
1077B
102
{ACAD_REACTORS
330
C
102
}
330
C
100
AcDbDictionary
281
     1
  3
Standard
350
1077C
  0
DICTIONARY
  5
1076A
102
{ACAD_REACTORS
330
C
102
}
330
C
100
AcDbDictionary
281
     1
  3
2dWireframe
350
10770
  3
3D Hidden
350
10772
  3
3dWireframe
350
10771
  3
Basic
350
1076F
  3
Brighten
350
10776
  3
ColorChange
350
1077A
  3
Conceptual
350
10773
  3
Dim
350
10775
  3
EdgeColorOff
350
107F3
  3
Facepattern
350
10779
  3
Flat
350
1076B
  3
FlatWithEdges
350
1076C
  3
Gouraud
350
1076D
  3
GouraudWithEdges
350
1076E
  3
Hidden
350
107EB
  3
JitterOff
350
107F1
  3
Linepattern
350
10778
  3
OverhangOff
350
107F2
  3
Realistic
350
10774
  3
Shaded
350
107F0
  3
Shaded with edges
350
107EF
  3
Shades of Gray
350
107EC
  3
Sketchy
350
107ED
  3
Thicken
350
10777
  3
Wireframe
350
107EA
  3
X-Ray
350
107EE
  0
XRECORD
  5
11177
102
{ACAD_REACTORS
330
C
102
}
330
C
100
AcDbXrecord
280
     1
 90
        1
330
1077C
330
10824
330
10825
330
10826
  0
DICTIONARY
  5
49F
102
{ACAD_REACTORS
330
C
102
}
330
C
100
AcDbDictionary
281
     1
  3
CANNOSCALE
350
10837
  3
CMLEADERSTYLE
350
10835
  3
CTABLESTYLE
350
107E8
  3
DIMASSOC
350
4A0
  3
LAYEREVAL
350
10839
  3
LAYERNOTIFY
350
1083A
  3
LIGHTINGUNITS
350
10838
  3
MSLTSCALE
350
10836
  3
PROJECTNAME
350
4A1
  0
DICTIONARY
  5
E029
102
{ACAD_REACTORS
330
C
102
}
330
C
100
AcDbDictionary
281
     1
  3
ACET-LMAN-MODE
350
E02A
  0
DICTIONARY
  5
A6A
102
{ACAD_REACTORS
330
BE
102
}
330
BE
100
AcDbDictionary
281
     1
  0
DICTIONARY
  5
BF
102
{ACAD_REACTORS
330
BE
102
}
330
BE
100
AcDbDictionary
281
     1
  3
Alle lag
350
1D0
  0
XRECORD
  5
10983
102
{ACAD_REACTORS
330
10982
102
}
330
10982
100
AcDbXrecord
280
     1
290
     1
  0
XRECORD
  5
10985
102
{ACAD_REACTORS
330
10984
102
}
330
10984
100
AcDbXrecord
280
     1
290
     1
  0
XRECORD
  5
10987
102
{ACAD_REACTORS
330
10986
102
}
330
10986
100
AcDbXrecord
280
     1
290
     1
  0
XRECORD
  5
10989
102
{ACAD_REACTORS
330
10988
102
}
330
10988
100
AcDbXrecord
280
     1
290
     1
  0
XRECORD
  5
1098B
102
{ACAD_REACTORS
330
1098A
102
}
330
1098A
100
AcDbXrecord
280
     1
290
     1
  0
XRECORD
  5
1098D
102
{ACAD_REACTORS
330
1098C
102
}
330
1098C
100
AcDbXrecord
280
     1
290
     1
  0
XRECORD
  5
1098F
102
{ACAD_REACTORS
330
1098E
102
}
330
1098E
100
AcDbXrecord
280
     1
290
     1
  0
XRECORD
  5
10991
102
{ACAD_REACTORS
330
10990
102
}
330
10990
100
AcDbXrecord
280
     1
290
     1
  0
XRECORD
  5
10993
102
{ACAD_REACTORS
330
10992
102
}
330
10992
100
AcDbXrecord
280
     1
290
     1
  0
XRECORD
  5
10995
102
{ACAD_REACTORS
330
10994
102
}
330
10994
100
AcDbXrecord
280
     1
290
     1
  0
XRECORD
  5
10997
102
{ACAD_REACTORS
330
10996
102
}
330
10996
100
AcDbXrecord
280
     1
290
     1
  0
XRECORD
  5
10999
102
{ACAD_REACTORS
330
10998
102
}
330
10998
100
AcDbXrecord
280
     1
290
     1
  0
XRECORD
  5
1099B
102
{ACAD_REACTORS
330
1099A
102
}
330
1099A
100
AcDbXrecord
280
     1
290
     1
  0
XRECORD
  5
1099D
102
{ACAD_REACTORS
330
1099C
102
}
330
1099C
100
AcDbXrecord
280
     1
290
     1
  0
XRECORD
  5
1099F
102
{ACAD_REACTORS
330
1099E
102
}
330
1099E
100
AcDbXrecord
280
     1
290
     1
  0
XRECORD
  5
109A1
102
{ACAD_REACTORS
330
109A0
102
}
330
109A0
100
AcDbXrecord
280
     1
290
     1
  0
SORTENTSTABLE
  5
6579
102
{ACAD_REACTORS
330
6578
102
}
330
6578
100
AcDbSortentsTable
330
18
331
EF3C
  5
EF59
331
EC4E
  5
EC70
331
EF54
  5
EF61
331
FD8F
  5
107B1
331
10E7B
  5
10E96
331
10E83
  5
10E98
331
EA3F
  5
EC0A
331
EF5C
  5
10786
331
107E3
  5
10796
331
10E64
  5
10E81
331
10F3F
  5
10F3F
331
7B09
  5
882D
331
EEA6
  5
EEC6
331
FD78
  5
107AE
331
EEBE
  5
EF09
331
EF3D
  5
EF5A
331
EC4F
  5
EC72
331
EF55
  5
EF62
331
FD90
  5
107B2
331
10E7C
  5
E705
331
EA40
  5
EC0B
331
EC6F
  5
EE9D
331
EEC6
  5
EF20
331
EF06
  5
EF36
331
F624
  5
1078C
331
FD98
  5
107D3
331
ECBF
  5
EEB0
331
EF16
  5
EF3B
331
105E0
  5
10A7F
331
107E4
  5
10797
331
10F38
  5
10F38
331
10F40
  5
10F40
331
EEA7
  5
EF01
331
EC38
  5
EC4F
331
EF36
  5
EF53
331
FD79
  5
107AF
331
EEBF
  5
EF0A
331
EF3E
  5
EF5B
331
EF56
  5
F4C1
331
FD91
  5
107C5
331
107DF
  5
10790
331
10E7D
  5
E716
331
EC70
  5
EEA6
331
EF07
  5
EF37
331
F625
  5
1078D
331
F7B3
  5
107A5
331
EC09
  5
EC38
331
EF17
  5
EF3C
331
105E1
  5
10E56
331
107E5
  5
10798
331
10824
  5
10E63
331
10E5E
  5
10E67
331
10E66
  5
10E82
331
10F39
  5
10F39
331
10F41
  5
10F41
331
EC29
  5
EC4E
331
EEB0
  5
EF06
331
EF37
  5
EF54
331
7B13
  5
A864
331
105E9
  5
10E5E
331
EF57
  5
F598
331
FD92
  5
107C6
331
10E7E
  5
EA3F
331
EC69
  5
ECBF
331
F7B4
  5
107A6
331
EC0A
  5
EC45
331
107E6
  5
10799
331
10825
  5
10E64
331
10E5F
  5
10E7B
331
10E67
  5
10E83
331
10F3A
  5
10F3A
331
10F42
  5
10F42
331
EF20
  5
EF3D
331
EEB1
  5
EF07
331
EF38
  5
EF55
331
105EA
  5
10E5F
331
10E7F
  5
EA40
331
EEC1
  5
EF0B
331
EF58
  5
F5A3
331
EA43
  5
EC0C
331
EC72
  5
EEA7
331
EF01
  5
EF21
331
EF09
  5
EF38
331
F7B5
  5
107A7
331
FD9B
  5
107DB
331
EC0B
  5
EC4C
331
107E7
  5
1079A
331
10826
  5
10E65
331
10E60
  5
10E7C
331
10E68
  5
10E95
331
10F3B
  5
10F3B
331
10FDA
  5
11074
331
EF21
  5
EF3E
331
E704
  5
EA95
331
EF39
  5
EF56
331
10E80
  5
EA43
331
EC6B
  5
EE9C
331
EF59
  5
F624
331
EF61
  5
10787
331
EF0A
  5
EF39
331
F7B6
  5
107A8
331
FD9C
  5
10821
331
EC0C
  5
EC4D
331
107E0
  5
10791
331
10E61
  5
10E7E
331
E705
  5
EC09
331
EF3A
  5
EF57
331
EC4C
  5
EC6B
331
EEC3
  5
EF16
331
EF5A
  5
F625
331
EF62
  5
10788
331
EF0B
  5
EF3A
331
FD9D
  5
10824
331
EE9C
  5
EEC3
331
107E1
  5
10792
331
10E62
  5
10E7F
331
EC45
  5
EC69
331
EF3B
  5
EF58
331
10784
  5
1078E
331
EC4D
  5
EC6F
331
EF53
  5
EF5C
331
FD8E
  5
107B0
331
FD96
  5
107D2
331
1070D
  5
10E60
331
10E82
  5
10E97
331
EEC4
  5
EF17
331
EF5B
  5
F7B3
331
EE9D
  5
EEC4
331
FD77
  5
107AD
331
107E2
  5
10793
331
10821
  5
10E61
331
10A7F
  5
10E66
331
10E63
  5
10E80
  0
SORTENTSTABLE
  5
FBF5
102
{ACAD_REACTORS
330
C9DB
102
}
330
C9DB
100
AcDbSortentsTable
330
C9DA
  0
SORTENTSTABLE
  5
10BC6
102
{ACAD_REACTORS
330
10BC5
102
}
330
10BC5
100
AcDbSortentsTable
330
D86E
  0
SORTENTSTABLE
  5
FBF4
102
{ACAD_REACTORS
330
EC05
102
}
330
EC05
100
AcDbSortentsTable
330
EC01
  0
SORTENTSTABLE
  5
FBF6
102
{ACAD_REACTORS
330
F072
102
}
330
F072
100
AcDbSortentsTable
330
F06B
  0
SORTENTSTABLE
  5
10BF5
102
{ACAD_REACTORS
330
10BF4
102
}
330
10BF4
100
AcDbSortentsTable
330
F495
  0
SORTENTSTABLE
  5
FCDD
102
{ACAD_REACTORS
330
F7FF
102
}
330
F7FF
100
AcDbSortentsTable
330
F7FE
  0
SORTENTSTABLE
  5
10AF2
102
{ACAD_REACTORS
330
10AF1
102
}
330
10AF1
100
AcDbSortentsTable
330
FD4E
  0
SORTENTSTABLE
  5
FDAE
102
{ACAD_REACTORS
330
FDAD
102
}
330
FDAD
100
AcDbSortentsTable
330
FDAC
  0
XRECORD
  5
11179
102
{ACAD_REACTORS
330
11178
102
}
330
11178
100
AcDbXrecord
280
     1
340
10771
  0
GROUP
  5
E708
102
{ACAD_REACTORS
330
D
102
}
330
D
100
AcDbGroup
300

 70
     1
 71
     1
340
E705
340
E704
  0
IMAGEDEF
  5
1081E
102
{ACAD_REACTORS
330
1081D
102
}
330
1081D
100
AcDbRasterImageDef
 90
        0
  1
C:\Users\Ryan\Desktop\Monier_Logo_CMYK.jpg
 10
283.0
 20
124.0
 11
0.0035335689045936
 21
0.0035335689045936
280
     1
281
     0
  0
LAYOUT
  5
10753
102
{ACAD_REACTORS
330
8F
102
}
330
8F
100
AcDbPlotSettings
  1

  2
D:\00-Tegn-std\Witraz-cad\Plotters\HP5000N-2sal-PS.pc3
  4

  6

 40
0.0
 41
0.0
 42
0.0
 43
0.0
 44
0.0
 45
0.0
 46
0.0
 47
0.0
 48
0.0
 49
0.0
140
0.0
141
0.0
142
1.0
143
1.0
 70
   688
 72
     0
 73
     0
 74
     5
  7
monochrome.ctb
 75
    16
147
1.0
 76
     0
 77
     2
 78
   300
148
0.0
149
0.0
100
AcDbLayout
  1
Layout1
 70
     1
 71
     1
 10
0.0
 20
0.0
 11
12.0
 21
9.0
 12
0.0
 22
0.0
 32
0.0
 14
0.0
 24
0.0
 34
0.0
 15
0.0
 25
0.0
 35
0.0
146
0.0
 13
0.0
 23
0.0
 33
0.0
 16
1.0
 26
0.0
 36
0.0
 17
0.0
 27
1.0
 37
0.0
 76
     0
330
10752
  0
LAYOUT
  5
91
102
{ACAD_XDICTIONARY
360
10830
102
}
102
{ACAD_REACTORS
330
8F
102
}
330
8F
100
AcDbPlotSettings
  1

  2
DWG To PDF.pc3
  4
ISO_full_bleed_A4_(210.00_x_297.00_MM)
  6

 40
0.7937499880790711
 41
0.7937499880790711
 42
0.7937469482421875
 43
0.79376220703125
 44
210.0
 45
297.0
 46
1.589282083825054
 47
0.0
 48
-2453.860138353379
 49
-1029.284786857553
140
-473.8601383533787
141
1820.715213142446
142
1.0
143
9.647527161689698
 70
 11956
 72
     1
 73
     0
 74
     4
  7
monochrome.ctb
 75
     0
147
0.1036535044929437
 76
     0
 77
     2
 78
   300
148
2453.860138353379
149
1029.284786857553
100
AcDbLayout
  1
Model
 70
     1
 71
     0
 10
0.0
 20
0.0
 11
12.0
 21
9.0
 12
0.0
 22
0.0
 32
0.0
 14
0.0
 24
0.0
 34
0.0
 15
0.0
 25
0.0
 35
0.0
146
0.0
 13
0.0
 23
0.0
 33
0.0
 16
1.0
 26
0.0
 36
0.0
 17
0.0
 27
1.0
 37
0.0
 76
     0
330
18
331
10757
1001
ACAD_PSEXT
1000
DWG To PDF.pc3
1000
DWG To PDF
1000
File
1000

1070
     0
  0
MATERIAL
  5
10768
102
{ACAD_XDICTIONARY
360
1117C
102
}
102
{ACAD_REACTORS
330
8D
102
}
330
8D
100
AcDbMaterial
  1
ByBlock
 73
     1
 78
     1
172
     1
176
     1
270
     1
274
     1
  0
MATERIAL
  5
10767
102
{ACAD_XDICTIONARY
360
1117A
102
}
102
{ACAD_REACTORS
330
8D
102
}
330
8D
100
AcDbMaterial
  1
ByLayer
 73
     1
 78
     1
172
     1
176
     1
270
     1
274
     1
  0
MATERIAL
  5
10769
102
{ACAD_XDICTIONARY
360
1117E
102
}
102
{ACAD_REACTORS
330
8D
102
}
330
8D
100
AcDbMaterial
  1
Global
 73
     1
 78
     1
172
     1
176
     1
270
     1
274
     1
  0
MLEADERSTYLE
  5
10807
102
{ACAD_XDICTIONARY
360
11146
102
}
102
{ACAD_REACTORS
330
10806
102
}
330
10806
100
AcDbMLeaderStyle
170
     2
171
     1
172
     0
 90
        2
 40
0.0
 41
0.0
173
     1
 91
-1056964608
340
12
 92
       -2
290
     1
 42
2.0
291
     1
 43
0.36
  3
Standard
 44
4.0
300

342
F
174
     1
178
     6
175
     1
176
     0
 93
-1056964608
 45
4.0
292
     0
297
     0
 46
4.0
 94
-1056964608
 47
1.0
 49
1.0
140
1.0
293
     1
141
0.0
294
     1
177
     0
142
1.0
295
     0
296
     0
143
0.125
1001
ACAD_MLEADERVER
1070
     2
  0
MLINESTYLE
  5
1C
102
{ACAD_REACTORS
330
1B
102
}
330
1B
100
AcDbMlineStyle
  2
STANDARD
 70
     0
  3

 62
   256
 51
90.0
 52
90.0
 71
     2
 49
0.5
 62
   256
  6
BYLAYER
 49
-0.5
 62
   256
  6
BYLAYER
  0
ACDBPLACEHOLDER
  5
8C
102
{ACAD_REACTORS
330
8B
102
}
330
8B
  0
SCALE
  5
107F5
102
{ACAD_REACTORS
330
107F4
102
}
330
107F4
100
AcDbScale
 70
     0
300
1:1
140
1.0
141
1.0
290
     1
  0
SCALE
  5
107F6
102
{ACAD_REACTORS
330
107F4
102
}
330
107F4
100
AcDbScale
 70
     0
300
1:2
140
1.0
141
2.0
290
     0
  0
SCALE
  5
107F7
102
{ACAD_REACTORS
330
107F4
102
}
330
107F4
100
AcDbScale
 70
     0
300
1:4
140
1.0
141
4.0
290
     0
  0
SCALE
  5
107F8
102
{ACAD_REACTORS
330
107F4
102
}
330
107F4
100
AcDbScale
 70
     0
300
1:5
140
1.0
141
5.0
290
     0
  0
SCALE
  5
107F9
102
{ACAD_REACTORS
330
107F4
102
}
330
107F4
100
AcDbScale
 70
     0
300
1:8
140
1.0
141
8.0
290
     0
  0
SCALE
  5
107FA
102
{ACAD_REACTORS
330
107F4
102
}
330
107F4
100
AcDbScale
 70
     0
300
1:10
140
1.0
141
10.0
290
     0
  0
SCALE
  5
107FB
102
{ACAD_REACTORS
330
107F4
102
}
330
107F4
100
AcDbScale
 70
     0
300
1:16
140
1.0
141
16.0
290
     0
  0
SCALE
  5
107FC
102
{ACAD_REACTORS
330
107F4
102
}
330
107F4
100
AcDbScale
 70
     0
300
1:20
140
1.0
141
20.0
290
     0
  0
SCALE
  5
107FD
102
{ACAD_REACTORS
330
107F4
102
}
330
107F4
100
AcDbScale
 70
     0
300
1:30
140
1.0
141
30.0
290
     0
  0
SCALE
  5
107FE
102
{ACAD_REACTORS
330
107F4
102
}
330
107F4
100
AcDbScale
 70
     0
300
1:40
140
1.0
141
40.0
290
     0
  0
SCALE
  5
107FF
102
{ACAD_REACTORS
330
107F4
102
}
330
107F4
100
AcDbScale
 70
     0
300
1:50
140
1.0
141
50.0
290
     0
  0
SCALE
  5
10800
102
{ACAD_REACTORS
330
107F4
102
}
330
107F4
100
AcDbScale
 70
     0
300
1:100
140
1.0
141
100.0
290
     0
  0
SCALE
  5
10801
102
{ACAD_REACTORS
330
107F4
102
}
330
107F4
100
AcDbScale
 70
     0
300
2:1
140
2.0
141
1.0
290
     0
  0
SCALE
  5
10802
102
{ACAD_REACTORS
330
107F4
102
}
330
107F4
100
AcDbScale
 70
     0
300
4:1
140
4.0
141
1.0
290
     0
  0
SCALE
  5
10803
102
{ACAD_REACTORS
330
107F4
102
}
330
107F4
100
AcDbScale
 70
     0
300
8:1
140
8.0
141
1.0
290
     0
  0
SCALE
  5
10804
102
{ACAD_REACTORS
330
107F4
102
}
330
107F4
100
AcDbScale
 70
     0
300
10:1
140
10.0
141
1.0
290
     0
  0
SCALE
  5
10805
102
{ACAD_REACTORS
330
107F4
102
}
330
107F4
100
AcDbScale
 70
     0
300
100:1
140
100.0
141
1.0
290
     0
  0
TABLESTYLE
  5
1077C
102
{ACAD_XDICTIONARY
360
10A30
102
}
102
{ACAD_REACTORS
330
1077B
102
}
330
1077B
100
AcDbTableStyle
  3
Standard
 70
     0
 71
     0
 40
1.5
 41
1.5
280
     0
281
     0
  7
STANDARD
140
4.5
170
     2
 62
     0
 63
     7
283
     0
274
    -2
284
     1
 64
     0
275
    -2
285
     1
 65
     0
276
    -2
286
     1
 66
     0
277
    -2
287
     1
 67
     0
278
    -2
288
     1
 68
     0
279
    -2
289
     1
 69
     0
  7
STANDARD
140
6.0
170
     5
 62
     0
 63
     7
283
     0
274
    -2
284
     1
 64
     0
275
    -2
285
     1
 65
     0
276
    -2
286
     1
 66
     0
277
    -2
287
     1
 67
     0
278
    -2
288
     1
 68
     0
279
    -2
289
     1
 69
     0
  7
STANDARD
140
4.5
170
     5
 62
     0
 63
     7
283
     0
274
    -2
284
     1
 64
     0
275
    -2
285
     1
 65
     0
276
    -2
286
     1
 66
     0
277
    -2
287
     1
 67
     0
278
    -2
288
     1
 68
     0
279
    -2
289
     1
 69
     0
  0
VISUALSTYLE
  5
10770
102
{ACAD_XDICTIONARY
360
1118A
102
}
102
{ACAD_REACTORS
330
1076A
102
}
330
1076A
100
AcDbVisualStyle
  2
2dWireframe
 70
     4
 71
     0
 72
     2
 73
     0
 90
        0
 40
-0.6
 41
-30.0
 62
     5
 63
     7
421
 16777215
 74
     1
 91
        4
 64
     7
 65
   257
 75
     1
175
     1
 42
1.0
 92
        0
 66
   257
 43
1.0
 76
     1
 77
     6
 78
     2
 67
     7
 79
     5
170
     0
171
     0
290
     0
174
     0
 93
        1
 44
0.0
173
     0
291
     0
 45
0.0
1001
ACAD
1000
AcDbSavedByObjectVersion
1070
     0
  0
VISUALSTYLE
  5
10772
102
{ACAD_XDICTIONARY
360
1118E
102
}
102
{ACAD_REACTORS
330
1076A
102
}
330
1076A
100
AcDbVisualStyle
  2
3D Hidden
 70
     6
 71
     1
 72
     2
 73
     2
 90
        0
 40
-0.6
 41
-30.0
 62
     5
 63
     7
421
 16777215
 74
     2
 91
        2
 64
     7
 65
   257
 75
     2
175
     1
 42
40.0
 92
        0
 66
   257
 43
1.0
 76
     1
 77
     6
 78
     2
 67
     7
 79
     3
170
     0
171
     0
290
     0
174
     0
 93
        1
 44
0.0
173
     0
291
     0
 45
0.0
1001
ACAD
1000
AcDbSavedByObjectVersion
1070
     0
  0
VISUALSTYLE
  5
10771
102
{ACAD_XDICTIONARY
360
1118C
102
}
102
{ACAD_REACTORS
330
1076A
102
}
330
1076A
100
AcDbVisualStyle
  2
3dWireframe
 70
     5
 71
     0
 72
     2
 73
     0
 90
        0
 40
-0.6
 41
-30.0
 62
     5
 63
     7
421
 16777215
 74
     1
 91
        4
 64
     7
 65
   257
 75
     1
175
     1
 42
1.0
 92
        0
 66
   257
 43
1.0
 76
     1
 77
     6
 78
     2
 67
     7
 79
     5
170
     0
171
     0
290
     0
174
     0
 93
        1
 44
0.0
173
     0
291
     0
 45
0.0
1001
ACAD
1000
AcDbSavedByObjectVersion
1070
     0
  0
VISUALSTYLE
  5
1076F
102
{ACAD_XDICTIONARY
360
11188
102
}
102
{ACAD_REACTORS
330
1076A
102
}
330
1076A
100
AcDbVisualStyle
  2
Basic
 70
     7
 71
     1
 72
     0
 73
     1
 90
        0
 40
-0.6
 41
-30.0
 62
     5
 63
     7
421
 16777215
 74
     0
 91
        4
 64
     7
 65
   257
 75
     1
175
     1
 42
1.0
 92
        8
 66
     7
 43
1.0
 76
     1
 77
     6
 78
     2
 67
     7
 79
     5
170
     0
171
     0
290
     0
174
     0
 93
        1
 44
0.0
173
     0
291
     1
 45
0.0
1001
ACAD
1000
AcDbSavedByObjectVersion
1070
     0
  0
VISUALSTYLE
  5
10776
102
{ACAD_XDICTIONARY
360
11196
102
}
102
{ACAD_REACTORS
330
1076A
102
}
330
1076A
100
AcDbVisualStyle
  2
Brighten
 70
    12
 71
     2
 72
     2
 73
     0
 90
        0
 40
-0.6
 41
-30.0
 62
     5
 63
     7
421
 16777215
 74
     1
 91
        4
 64
     7
 65
   257
 75
     1
175
     1
 42
1.0
 92
        8
 66
     7
 43
1.0
 76
     1
 77
     6
 78
     2
 67
     7
 79
     5
170
     0
171
     0
290
     0
174
     0
 93
        1
 44
50.0
173
     0
291
     1
 45
0.0
1001
ACAD
1000
AcDbSavedByObjectVersion
1070
     0
  0
VISUALSTYLE
  5
1077A
102
{ACAD_XDICTIONARY
360
1119E
102
}
102
{ACAD_REACTORS
330
1076A
102
}
330
1076A
100
AcDbVisualStyle
  2
ColorChange
 70
    16
 71
     2
 72
     2
 73
     3
 90
        0
 40
-0.6
 41
-30.0
 62
     5
 63
     8
421
  8421504
 74
     1
 91
        4
 64
     7
 65
   257
 75
     1
175
     1
 42
1.0
 92
        8
 66
     8
424
  8421504
 43
1.0
 76
     1
 77
     6
 78
     2
 67
     7
 79
     5
170
     0
171
     0
290
     0
174
     0
 93
        1
 44
0.0
173
     0
291
     1
 45
0.0
1001
ACAD
1000
AcDbSavedByObjectVersion
1070
     0
  0
VISUALSTYLE
  5
10773
102
{ACAD_XDICTIONARY
360
11190
102
}
102
{ACAD_REACTORS
330
1076A
102
}
330
1076A
100
AcDbVisualStyle
  2
Conceptual
 70
     9
 71
     3
 72
     2
 73
     0
 90
        0
 40
-0.6
 41
-30.0
 62
     5
 63
     7
421
 16777215
 74
     2
 91
        2
 64
     7
 65
   257
 75
     1
175
     1
 42
40.0
 92
        8
 66
     7
 43
1.0
 76
     1
 77
     6
 78
     2
 67
     7
 79
     3
170
     0
171
     0
290
     0
174
     0
 93
        1
 44
0.0
173
     0
291
     0
 45
0.0
1001
ACAD
1000
AcDbSavedByObjectVersion
1070
     0
  0
VISUALSTYLE
  5
10775
102
{ACAD_XDICTIONARY
360
11194
102
}
102
{ACAD_REACTORS
330
1076A
102
}
330
1076A
100
AcDbVisualStyle
  2
Dim
 70
    11
 71
     2
 72
     2
 73
     0
 90
        0
 40
-0.6
 41
-30.0
 62
     5
 63
     7
421
 16777215
 74
     1
 91
        4
 64
     7
 65
   257
 75
     1
175
     1
 42
1.0
 92
        8
 66
     7
 43
1.0
 76
     1
 77
     6
 78
     2
 67
     7
 79
     5
170
     0
171
     0
290
     0
174
     0
 93
        1
 44
-50.0
173
     0
291
     1
 45
0.0
1001
ACAD
1000
AcDbSavedByObjectVersion
1070
     0
  0
VISUALSTYLE
  5
107F3
102
{ACAD_XDICTIONARY
360
111B3
102
}
102
{ACAD_REACTORS
330
1076A
102
}
330
1076A
100
AcDbVisualStyle
  2
EdgeColorOff
 70
    22
 71
     2
 72
     2
 73
     0
 90
        0
 40
-0.6
 41
-30.0
 62
     5
 63
     7
421
 16777215
 74
     1
 91
        4
 64
     7
 65
   257
 75
     1
175
     1
 42
1.0
 92
        8
 66
     7
 43
1.0
 76
     1
 77
     6
 78
     2
 67
     7
 79
     5
170
     0
171
     0
290
     0
174
     0
 93
        1
 44
0.0
173
     0
291
     1
 45
0.0
1001
ACAD
1000
AcDbSavedByObjectVersion
1070
     0
  0
VISUALSTYLE
  5
10779
102
{ACAD_XDICTIONARY
360
1119C
102
}
102
{ACAD_REACTORS
330
1076A
102
}
330
1076A
100
AcDbVisualStyle
  2
Facepattern
 70
    15
 71
     2
 72
     2
 73
     0
 90
        0
 40
-0.6
 41
-30.0
 62
     5
 63
     7
421
 16777215
 74
     1
 91
        4
 64
     7
 65
   257
 75
     1
175
     1
 42
1.0
 92
        8
 66
     7
 43
1.0
 76
     1
 77
     6
 78
     2
 67
     7
 79
     5
170
     0
171
     0
290
     0
174
     0
 93
        1
 44
0.0
173
     0
291
     1
 45
0.0
1001
ACAD
1000
AcDbSavedByObjectVersion
1070
     0
  0
VISUALSTYLE
  5
1076B
102
{ACAD_XDICTIONARY
360
11180
102
}
102
{ACAD_REACTORS
330
1076A
102
}
330
1076A
100
AcDbVisualStyle
  2
Flat
 70
     0
 71
     2
 72
     1
 73
     1
 90
        2
 40
-0.6
 41
30.0
 62
     5
 63
     7
421
 16777215
 74
     0
 91
        4
 64
     7
 65
   257
 75
     1
175
     1
 42
1.0
 92
        8
 66
     7
 43
1.0
 76
     1
 77
     6
 78
     2
 67
     7
 79
     5
170
     0
171
     0
290
     0
174
     0
 93
       13
 44
0.0
173
     0
291
     1
 45
0.0
1001
ACAD
1000
AcDbSavedByObjectVersion
1070
     0
  0
VISUALSTYLE
  5
1076C
102
{ACAD_XDICTIONARY
360
11182
102
}
102
{ACAD_REACTORS
330
1076A
102
}
330
1076A
100
AcDbVisualStyle
  2
FlatWithEdges
 70
     1
 71
     2
 72
     1
 73
     1
 90
        2
 40
-0.6
 41
30.0
 62
     5
 63
     7
421
 16777215
 74
     1
 91
        4
 64
     7
 65
   257
 75
     1
175
     1
 42
1.0
 92
        0
 66
   257
 43
1.0
 76
     1
 77
     6
 78
     2
 67
     7
 79
     5
170
     0
171
     0
290
     0
174
     0
 93
       13
 44
0.0
173
     0
291
     1
 45
0.0
1001
ACAD
1000
AcDbSavedByObjectVersion
1070
     0
  0
VISUALSTYLE
  5
1076D
102
{ACAD_XDICTIONARY
360
11184
102
}
102
{ACAD_REACTORS
330
1076A
102
}
330
1076A
100
AcDbVisualStyle
  2
Gouraud
 70
     2
 71
     2
 72
     2
 73
     1
 90
        2
 40
-0.6
 41
30.0
 62
     5
 63
     7
421
 16777215
 74
     0
 91
        4
 64
     7
 65
   257
 75
     1
175
     1
 42
1.0
 92
        0
 66
     7
 43
1.0
 76
     1
 77
     6
 78
     2
 67
     7
 79
     5
170
     0
171
     0
290
     0
174
     0
 93
       13
 44
0.0
173
     0
291
     1
 45
0.0
1001
ACAD
1000
AcDbSavedByObjectVersion
1070
     0
  0
VISUALSTYLE
  5
1076E
102
{ACAD_XDICTIONARY
360
11186
102
}
102
{ACAD_REACTORS
330
1076A
102
}
330
1076A
100
AcDbVisualStyle
  2
GouraudWithEdges
 70
     3
 71
     2
 72
     2
 73
     1
 90
        2
 40
-0.6
 41
30.0
 62
     5
 63
     7
421
 16777215
 74
     1
 91
        4
 64
     7
 65
   257
 75
     1
175
     1
 42
1.0
 92
        0
 66
   257
 43
1.0
 76
     1
 77
     6
 78
     2
 67
     7
 79
     5
170
     0
171
     0
290
     0
174
     0
 93
       13
 44
0.0
173
     0
291
     1
 45
0.0
1001
ACAD
1000
AcDbSavedByObjectVersion
1070
     0
  0
VISUALSTYLE
  5
107EB
102
{ACAD_XDICTIONARY
360
111A3
102
}
102
{ACAD_REACTORS
330
1076A
102
}
330
1076A
100
AcDbVisualStyle
  2
Hidden
 70
     6
 71
     1
 72
     2
 73
     2
 90
        0
 40
-0.6
 41
-30.0
 62
     5
 63
     7
421
 16777215
 74
     2
 91
        2
 64
     7
 65
   257
 75
     2
175
     1
 42
40.0
 92
        0
 66
   257
 43
1.0
 76
     1
 77
     6
 78
     2
 67
     7
 79
     3
170
     0
171
     0
290
     0
174
     0
 93
        1
 44
0.0
173
     0
291
     0
 45
0.0
1001
ACAD
1000
AcDbSavedByObjectVersion
1070
     0
  0
VISUALSTYLE
  5
107F1
102
{ACAD_XDICTIONARY
360
111AF
102
}
102
{ACAD_REACTORS
330
1076A
102
}
330
1076A
100
AcDbVisualStyle
  2
JitterOff
 70
    20
 71
     2
 72
     2
 73
     0
 90
        0
 40
-0.6
 41
-30.0
 62
     5
 63
     7
421
 16777215
 74
     1
 91
        4
 64
     7
 65
   257
 75
     1
175
     1
 42
1.0
 92
       10
 66
     7
 43
1.0
 76
     1
 77
     6
 78
     2
 67
     7
 79
     5
170
     0
171
     0
290
     0
174
     0
 93
        1
 44
0.0
173
     0
291
     1
 45
0.0
1001
ACAD
1000
AcDbSavedByObjectVersion
1070
     0
  0
VISUALSTYLE
  5
10778
102
{ACAD_XDICTIONARY
360
1119A
102
}
102
{ACAD_REACTORS
330
1076A
102
}
330
1076A
100
AcDbVisualStyle
  2
Linepattern
 70
    14
 71
     2
 72
     2
 73
     0
 90
        0
 40
-0.6
 41
-30.0
 62
     5
 63
     7
421
 16777215
 74
     1
 91
        4
 64
     7
 65
   257
 75
     7
175
     7
 42
1.0
 92
        8
 66
     7
 43
1.0
 76
     1
 77
     6
 78
     2
 67
     7
 79
     5
170
     0
171
     0
290
     0
174
     0
 93
        1
 44
0.0
173
     0
291
     1
 45
0.0
1001
ACAD
1000
AcDbSavedByObjectVersion
1070
     0
  0
VISUALSTYLE
  5
107F2
102
{ACAD_XDICTIONARY
360
111B1
102
}
102
{ACAD_REACTORS
330
1076A
102
}
330
1076A
100
AcDbVisualStyle
  2
OverhangOff
 70
    21
 71
     2
 72
     2
 73
     0
 90
        0
 40
-0.6
 41
-30.0
 62
     5
 63
     7
421
 16777215
 74
     1
 91
        4
 64
     7
 65
   257
 75
     1
175
     1
 42
1.0
 92
        9
 66
     7
 43
1.0
 76
     1
 77
     6
 78
     2
 67
     7
 79
     5
170
     0
171
     0
290
     0
174
     0
 93
        1
 44
0.0
173
     0
291
     1
 45
0.0
1001
ACAD
1000
AcDbSavedByObjectVersion
1070
     0
  0
VISUALSTYLE
  5
10774
102
{ACAD_XDICTIONARY
360
11192
102
}
102
{ACAD_REACTORS
330
1076A
102
}
330
1076A
100
AcDbVisualStyle
  2
Realistic
 70
     8
 71
     2
 72
     2
 73
     0
 90
        0
 40
-0.6
 41
-30.0
 62
     5
 63
     7
421
 16777215
 74
     1
 91
        0
 64
     7
 65
   257
 75
     1
175
     1
 42
1.0
 92
        8
 66
     8
424
  7895160
 43
1.0
 76
     1
 77
     6
 78
     2
 67
     7
 79
     5
170
     0
171
     0
290
     0
174
     0
 93
       13
 44
0.0
173
     0
291
     0
 45
0.0
1001
ACAD
1000
AcDbSavedByObjectVersion
1070
     0
  0
VISUALSTYLE
  5
107F0
102
{ACAD_XDICTIONARY
360
111AD
102
}
102
{ACAD_REACTORS
330
1076A
102
}
330
1076A
100
AcDbVisualStyle
  2
Shaded
 70
    27
 71
     2
 72
     2
 73
     1
 90
        2
 40
-0.6
 41
30.0
 62
     5
 63
     7
421
 16777215
 74
     0
 91
        4
 64
     7
 65
   257
 75
     1
175
     1
 42
1.0
 92
        8
 66
   257
 43
1.0
 76
     1
 77
     6
 78
     2
 67
     8
425
  7895160
 79
     3
170
     0
171
     0
290
     0
174
     0
 93
        5
 44
0.0
173
     0
291
     0
 45
0.0
1001
ACAD
1000
AcDbSavedByObjectVersion
1070
     0
  0
VISUALSTYLE
  5
107EF
102
{ACAD_XDICTIONARY
360
111AB
102
}
102
{ACAD_REACTORS
330
1076A
102
}
330
1076A
100
AcDbVisualStyle
  2
Shaded with edges
 70
    26
 71
     2
 72
     2
 73
     1
 90
        2
 40
-0.6
 41
30.0
 62
     5
 63
     7
421
 16777215
 74
     1
 91
       10
 64
     7
 65
   257
 75
     2
175
     1
 42
1.0
 92
        8
 66
   257
 43
1.0
 76
     1
 77
     6
 78
     2
 67
     7
 79
     3
170
     0
171
     0
290
     0
174
     0
 93
        5
 44
0.0
173
     0
291
     0
 45
0.0
1001
ACAD
1000
AcDbSavedByObjectVersion
1070
     0
  0
VISUALSTYLE
  5
107EC
102
{ACAD_XDICTIONARY
360
111A5
102
}
102
{ACAD_REACTORS
330
1076A
102
}
330
1076A
100
AcDbVisualStyle
  2
Shades of Gray
 70
    23
 71
     2
 72
     2
 73
     3
 90
        0
 40
-0.6
 41
-30.0
 62
     5
 63
     7
421
 16777215
 74
     2
 91
        2
 64
     7
 65
     7
 75
     1
175
     1
 42
40.0
 92
        8
 66
     7
 43
1.0
 76
     1
 77
     6
 78
     2
 67
     7
 79
     3
170
     0
171
     0
290
     0
174
     0
 93
        1
 44
0.0
173
     0
291
     0
 45
0.0
1001
ACAD
1000
AcDbSavedByObjectVersion
1070
     0
  0
VISUALSTYLE
  5
107ED
102
{ACAD_XDICTIONARY
360
111A7
102
}
102
{ACAD_REACTORS
330
1076A
102
}
330
1076A
100
AcDbVisualStyle
  2
Sketchy
 70
    24
 71
     1
 72
     2
 73
     2
 90
        0
 40
-0.6
 41
-30.0
 62
     5
 63
     7
421
 16777215
 74
     2
 91
        2
 64
     7
 65
     7
 75
     1
175
     1
 42
40.0
 92
       11
 66
     7
 43
1.0
 76
     1
 77
     6
 78
     2
 67
     7
 79
     6
170
     0
171
     0
290
     0
174
     0
 93
        1
 44
0.0
173
     0
291
     0
 45
0.0
1001
ACAD
1000
AcDbSavedByObjectVersion
1070
     0
  0
VISUALSTYLE
  5
10777
102
{ACAD_XDICTIONARY
360
11198
102
}
102
{ACAD_REACTORS
330
1076A
102
}
330
1076A
100
AcDbVisualStyle
  2
Thicken
 70
    13
 71
     2
 72
     2
 73
     0
 90
        0
 40
-0.6
 41
-30.0
 62
     5
 63
     7
421
 16777215
 74
     1
 91
        4
 64
     7
 65
   257
 75
     1
175
     1
 42
1.0
 92
       12
 66
     7
 43
1.0
 76
     1
 77
     6
 78
     2
 67
     7
 79
     5
170
     0
171
     0
290
     0
174
     0
 93
        1
 44
0.0
173
     0
291
     1
 45
0.0
1001
ACAD
1000
AcDbSavedByObjectVersion
1070
     0
  0
VISUALSTYLE
  5
107EA
102
{ACAD_XDICTIONARY
360
111A1
102
}
102
{ACAD_REACTORS
330
1076A
102
}
330
1076A
100
AcDbVisualStyle
  2
Wireframe
 70
     5
 71
     0
 72
     2
 73
     0
 90
        0
 40
-0.6
 41
-30.0
 62
     5
 63
     7
421
 16777215
 74
     1
 91
        4
 64
     7
 65
   257
 75
     1
175
     1
 42
1.0
 92
        0
 66
   257
 43
1.0
 76
     1
 77
     6
 78
     2
 67
     7
 79
     3
170
     0
171
     0
290
     0
174
     0
 93
        1
 44
0.0
173
     0
291
     0
 45
0.0
1001
ACAD
1000
AcDbSavedByObjectVersion
1070
     0
  0
VISUALSTYLE
  5
107EE
102
{ACAD_XDICTIONARY
360
111A9
102
}
102
{ACAD_REACTORS
330
1076A
102
}
330
1076A
100
AcDbVisualStyle
  2
X-Ray
 70
    25
 71
     2
 72
     2
 73
     1
 90
        1
 40
0.5
 41
-30.0
 62
     5
 63
     7
421
 16777215
 74
     1
 91
        0
 64
     7
 65
   257
 75
     1
175
     1
 42
1.0
 92
        8
 66
     7
 43
1.0
 76
     1
 77
     6
 78
     2
 67
     7
 79
     3
170
     0
171
     0
290
     0
174
     0
 93
       13
 44
0.0
173
     0
291
     0
 45
0.0
1001
ACAD
1000
AcDbSavedByObjectVersion
1070
     0
  0
DICTIONARYVAR
  5
10837
102
{ACAD_REACTORS
330
49F
102
}
330
49F
100
DictionaryVariables
280
     0
  1
1:1
  0
DICTIONARYVAR
  5
10835
102
{ACAD_REACTORS
330
49F
102
}
330
49F
100
DictionaryVariables
280
     0
  1
STANDARD
  0
DICTIONARYVAR
  5
107E8
102
{ACAD_REACTORS
330
49F
102
}
330
49F
100
DictionaryVariables
280
     0
  1
STANDARD
  0
DICTIONARYVAR
  5
4A0
102
{ACAD_REACTORS
330
49F
102
}
330
49F
100
DictionaryVariables
280
     0
  1
1
  0
DICTIONARYVAR
  5
10839
102
{ACAD_REACTORS
330
49F
102
}
330
49F
100
DictionaryVariables
280
     0
  1
1
  0
DICTIONARYVAR
  5
1083A
102
{ACAD_REACTORS
330
49F
102
}
330
49F
100
DictionaryVariables
280
     0
  1
15
  0
DICTIONARYVAR
  5
10838
102
{ACAD_REACTORS
330
49F
102
}
330
49F
100
DictionaryVariables
280
     0
  1
0
  0
DICTIONARYVAR
  5
10836
102
{ACAD_REACTORS
330
49F
102
}
330
49F
100
DictionaryVariables
280
     0
  1
0
  0
DICTIONARYVAR
  5
4A1
102
{ACAD_REACTORS
330
49F
102
}
330
49F
100
DictionaryVariables
280
     0
  1

  0
XRECORD
  5
E02A
102
{ACAD_REACTORS
330
E029
102
}
330
E029
100
AcDbXrecord
280
     1
 70
  1015
  0
XRECORD
  5
1D0
102
{ACAD_REACTORS
330
BF
102
}
330
BF
100
AcDbXrecord
280
     1
 91
      511
330
E
 90
        8
 62
     7
370
    -3
331
14
  1
Color_7
  0
DICTIONARY
  5
10830
330
91
100
AcDbDictionary
280
     1
281
     1
  3
ADSK_XREC_LAYOUTTHUMBNAIL
360
10831
  0
DICTIONARY
  5
1117C
330
10768
100
AcDbDictionary
280
     1
281
     1
  3
ACAD_XREC_ROUNDTRIP
360
1117D
  0
DICTIONARY
  5
1117A
330
10767
100
AcDbDictionary
280
     1
281
     1
  3
ACAD_XREC_ROUNDTRIP
360
1117B
  0
DICTIONARY
  5
1117E
330
10769
100
AcDbDictionary
280
     1
281
     1
  3
ACAD_XREC_ROUNDTRIP
360
1117F
  0
DICTIONARY
  5
11146
330
10807
100
AcDbDictionary
280
     1
281
     1
  3
ACAD_XREC_ROUNDTRIP
360
11147
  0
DICTIONARY
  5
10A30
330
1077C
100
AcDbDictionary
280
     1
281
     1
  3
ACAD_ROUNDTRIP_2008_TABLESTYLE_CELLSTYLEMAP
360
11176
  3
ACAD_XREC_ROUNDTRIP
360
111A0
  0
DICTIONARY
  5
1118A
330
10770
100
AcDbDictionary
280
     1
281
     1
  3
ACAD_XREC_ROUNDTRIP
360
1118B
  0
DICTIONARY
  5
1118E
330
10772
100
AcDbDictionary
280
     1
281
     1
  3
ACAD_XREC_ROUNDTRIP
360
1118F
  0
DICTIONARY
  5
1118C
330
10771
100
AcDbDictionary
280
     1
281
     1
  3
ACAD_XREC_ROUNDTRIP
360
1118D
  0
DICTIONARY
  5
11188
330
1076F
100
AcDbDictionary
280
     1
281
     1
  3
ACAD_XREC_ROUNDTRIP
360
11189
  0
DICTIONARY
  5
11196
330
10776
100
AcDbDictionary
280
     1
281
     1
  3
ACAD_XREC_ROUNDTRIP
360
11197
  0
DICTIONARY
  5
1119E
330
1077A
100
AcDbDictionary
280
     1
281
     1
  3
ACAD_XREC_ROUNDTRIP
360
1119F
  0
DICTIONARY
  5
11190
330
10773
100
AcDbDictionary
280
     1
281
     1
  3
ACAD_XREC_ROUNDTRIP
360
11191
  0
DICTIONARY
  5
11194
330
10775
100
AcDbDictionary
280
     1
281
     1
  3
ACAD_XREC_ROUNDTRIP
360
11195
  0
DICTIONARY
  5
111B3
330
107F3
100
AcDbDictionary
280
     1
281
     1
  3
ACAD_XREC_ROUNDTRIP
360
111B4
  0
DICTIONARY
  5
1119C
330
10779
100
AcDbDictionary
280
     1
281
     1
  3
ACAD_XREC_ROUNDTRIP
360
1119D
  0
DICTIONARY
  5
11180
330
1076B
100
AcDbDictionary
280
     1
281
     1
  3
ACAD_XREC_ROUNDTRIP
360
11181
  0
DICTIONARY
  5
11182
330
1076C
100
AcDbDictionary
280
     1
281
     1
  3
ACAD_XREC_ROUNDTRIP
360
11183
  0
DICTIONARY
  5
11184
330
1076D
100
AcDbDictionary
280
     1
281
     1
  3
ACAD_XREC_ROUNDTRIP
360
11185
  0
DICTIONARY
  5
11186
330
1076E
100
AcDbDictionary
280
     1
281
     1
  3
ACAD_XREC_ROUNDTRIP
360
11187
  0
DICTIONARY
  5
111A3
330
107EB
100
AcDbDictionary
280
     1
281
     1
  3
ACAD_XREC_ROUNDTRIP
360
111A4
  0
DICTIONARY
  5
111AF
330
107F1
100
AcDbDictionary
280
     1
281
     1
  3
ACAD_XREC_ROUNDTRIP
360
111B0
  0
DICTIONARY
  5
1119A
330
10778
100
AcDbDictionary
280
     1
281
     1
  3
ACAD_XREC_ROUNDTRIP
360
1119B
  0
DICTIONARY
  5
111B1
330
107F2
100
AcDbDictionary
280
     1
281
     1
  3
ACAD_XREC_ROUNDTRIP
360
111B2
  0
DICTIONARY
  5
11192
330
10774
100
AcDbDictionary
280
     1
281
     1
  3
ACAD_XREC_ROUNDTRIP
360
11193
  0
DICTIONARY
  5
111AD
330
107F0
100
AcDbDictionary
280
     1
281
     1
  3
ACAD_XREC_ROUNDTRIP
360
111AE
  0
DICTIONARY
  5
111AB
330
107EF
100
AcDbDictionary
280
     1
281
     1
  3
ACAD_XREC_ROUNDTRIP
360
111AC
  0
DICTIONARY
  5
111A5
330
107EC
100
AcDbDictionary
280
     1
281
     1
  3
ACAD_XREC_ROUNDTRIP
360
111A6
  0
DICTIONARY
  5
111A7
330
107ED
100
AcDbDictionary
280
     1
281
     1
  3
ACAD_XREC_ROUNDTRIP
360
111A8
  0
DICTIONARY
  5
11198
330
10777
100
AcDbDictionary
280
     1
281
     1
  3
ACAD_XREC_ROUNDTRIP
360
11199
  0
DICTIONARY
  5
111A1
330
107EA
100
AcDbDictionary
280
     1
281
     1
  3
ACAD_XREC_ROUNDTRIP
360
111A2
  0
DICTIONARY
  5
111A9
330
107EE
100
AcDbDictionary
280
     1
281
     1
  3
ACAD_XREC_ROUNDTRIP
360
111AA
  0
XRECORD
  5
10831
102
{ACAD_REACTORS
330
10830
102
}
330
10830
100
AcDbXrecord
280
     1
310
280000000001000080000000010008000000000000800000000000000000000000010000000000003028210000000000FFFFFF000000000000000000000000000000000000000000000000000000000000000000330000006600000099000000CC000000FF00000000330000333300006633000099330000CC330000FF3300
310
0000660000336600006666000099660000CC660000FF66000000990000339900006699000099990000CC990000FF99000000CC000033CC000066CC000099CC0000CCCC0000FFCC000000FF000033FF000066FF000099FF0000CCFF0000FFFF000000003300330033006600330099003300CC003300FF003300003333003333
310
33006633330099333300CC333300FF33330000663300336633006666330099663300CC663300FF66330000993300339933006699330099993300CC993300FF99330000CC330033CC330066CC330099CC3300CCCC3300FFCC330000FF330033FF330066FF330099FF3300CCFF3300FFFF330000006600330066006600660099
310
006600CC006600FF00660000336600333366006633660099336600CC336600FF33660000666600336666006666660099666600CC666600FF66660000996600339966006699660099996600CC996600FF99660000CC660033CC660066CC660099CC6600CCCC6600FFCC660000FF660033FF660066FF660099FF6600CCFF6600
310
FFFF660000009900330099006600990099009900CC009900FF00990000339900333399006633990099339900CC339900FF33990000669900336699006666990099669900CC669900FF66990000999900339999006699990099999900CC999900FF99990000CC990033CC990066CC990099CC9900CCCC9900FFCC990000FF99
310
0033FF990066FF990099FF9900CCFF9900FFFF99000000CC003300CC006600CC009900CC00CC00CC00FF00CC000033CC003333CC006633CC009933CC00CC33CC00FF33CC000066CC003366CC006666CC009966CC00CC66CC00FF66CC000099CC003399CC006699CC009999CC00CC99CC00FF99CC0000CCCC0033CCCC0066CC
310
CC0099CCCC00CCCCCC00FFCCCC0000FFCC0033FFCC0066FFCC0099FFCC00CCFFCC00FFFFCC000000FF003300FF006600FF009900FF00CC00FF00FF00FF000033FF003333FF006633FF009933FF00CC33FF00FF33FF000066FF003366FF006666FF009966FF00CC66FF00FF66FF000099FF003399FF006699FF009999FF00CC
310
99FF00FF99FF0000CCFF0033CCFF0066CCFF0099CCFF00CCCCFF00FFCCFF0000FFFF0033FFFF0066FFFF0099FFFF00CCFFFF00FFFFFF00000000000D0D0D001A1A1A00282828003535350043434300505050005D5D5D006B6B6B00787878008686860093939300A1A1A100AEAEAE00BBBBBB00C9C9C900D6D6D600E4E4E400
310
F1F1F100FFFFFF000000000000000000000000000000000000000000000000000000000000000000000000000000000000000000000000000000000000000000000000000000000000000000000000000000000000000000000000000000000000000000000000000000000000000000000000000000000000000000000000
310
00000000000000000000000000000000000000000000000000000000000000000000000000000000000000000000000000000000000000000000000000000000000000000000000000000000000000000000000000000000000000000000000000000000000000000000000000000000000000000000000000000000000000
310
00000000000000000000000000000000000000000000000000000000000000000000000000000000000000000000000000000000000000000000000000000000000000000000000000000000000000000000000000000000000000000000000000000000000000000000000000000000000000000000000000000000000000
310
00000000000000000000000000000000000000000000000000000000000000000000000000000000000000000000000000000000000000000000000000000000000000000000000000000000000000000000000000000000000000000000000000000000000000000000000000000000000000000000000000000000000000
310
00000000000000000000000000000000000000000000000000000000000000000000000000000000000000000000000000000000000000000000000000000000000000000000000000000000000000000000000000000000000000000000000000000000000000000000000000000000000000000000000000000000000000
310
00000000000000000000000000000000000000000000000000000000000000000000000000000000000000000000000000000000000000000000000000000000000000000000000000000000000000000000000000000000000000000000000000000000000000000000000000000000000000000000000000000000000000
310
00000000000000000000000000000000000000000000000000000000000000000000000000000000000000000000000000000000000000000000000000000000000000000000000000000000000000000000000000000000000000000000000000000000000000000000000000000000000000000000000000000000000000
310
00000000000000000000000000000000000000000000000000000000000000000000000000000000000000000000000000000000000000000000000000000000000000000000000000000000000000000000000000000000000000000000000000000000000000000000000000000000000000000000000000000000000000
310
00000000000000000000000000000000000000000000000000000000000000000000000000000000000000000000000000000000000000000000000000000000000000000000000000000000000000000000000000000000000000000000000000000000000000000000000000000000000000000000000000000000000000
310
00000000000000000000000000000000000000000000000000000000000000000000000000000000000000000000000000000000000000000000000000000000000000000000000000000000000000000000000000000000000000000000000000000000000000000000000000000000000000000000000000000000000000
310
00000000000000000000000000000000000000000000000000000000000000000000000000000000000000000000000000000000000000000000000000000000000000000000000000000000000000000000000000000000000000000000000000000000000000000000000000000000000000000000000000000000000000
310
00000000000000000000000000000000000000000000000000000000000000000000000000000000000000000000000000000000000000000000000000000000000000000000000000000000000000000000000000000000000000000000000000000000000000000000000000000000000000000000000000000000000000
310
00000000000000000000000000000000000000000000000000000000000000000000000000000000000000000000000000000000000000000000000000000000000000000000000000000000000000000000000000000000000000000000000000000000000000000000000000000000000000000000000000000000000000
310
00000000000000000000000000000000000000000000000000000000000000000000000000000000000000000000000000000000000000000000000000000000000000000000000000000000000000000000000000000000000000000000000000000000000000000000000000000000000000000000000000000000000000
310
00000000000000000000000000000000000000000000000000000000000000000000000000000000000000000000000000000000000000000000000000000000000000000000000000000000000000000000000000000000000000000000000000000000000000000000000000000000000000000000000000000000000000
310
00000000000000000000000000000000000000000000000000000000000000000000000000000000000000000000000000000000000000000000000000000000000000000000000000000000000000000000000000000000000000000000000000000000000000000000000000000000000000000000000000000000000000
310
00000000000000000000000000000000000000000000000000000000000000000000000000000000000000000000000000000000000000000000000000000000000000000000000000000000000000000000000000000000000000000000000000000000000000000000000000000000000000000000000000000000000000
310
00000000000000000000000000000000000000000000000000000000000000000000000000000000000000000000000000000000000000000000000000000000000000000000000000000000000000000000000000000000000000000000000000000000000000000000000000000000000000000000000000000000000000
310
00000000000000000000000000000000000000000000000000000000000000000000000000000000000000000000000000000000000000000000000000000000000000000000000000000000000000000000000000000000000000000000000000000000000000000000000000000000000000000000000000000000000000
310
00000000000000000000000000000000000000000000000000000000000000000000000000000000000000000000000000000000000000000000000000000000000000000000000000000000000000000000000000000000000000000000000000000000000000000000000000000000000000000000000000000000000000
310
00000000000000000000000000000000000000000000000000000000000000000000000000000000000000000000000000000000000000000000000000000000000000000000000000000000000000000000000000000000000000000000000000000000000000000000000000000000000000000000000000000000000000
310
00000000000000000000000000000000000000000000000000000000000000000000000000000000000000000000000000000000000000000000000000000000000000000000000000000000000000000000000000000000000000000000000000000000000000000000000000000000000000000000000000000000000000
310
00000000000000000000000000000000000000000000000000000000000000000000000000000000000000000000000000000000000000000000000000000000000000000000000000000000000000000000000000000000000000000000000000000000000000000000000000000000000000000000000000000000000000
310
00000000000000000000000000000000000000000000000000000000000000000000000000000000000000000000000000000000000000000000000000000000000000000000000000000000000000000000000000000000000000000000000000000000000000000000000000000000000000000000000000000000000000
310
00000000000000000000000000000000000000000000000000000000000000000000000000000000000000000000000000000000000000000000000000000000000000000000000000000000000000000000000000000000000000000000000000000000000000000000000000000000000000000000000000000000000000
310
00000000000000000000000000000000000000000000000000000000000000000000000000000000000000000000000000000000000000000000000000000000000000000000000000000000000000000000000000000000000000000000000000000000000000000000000000000000000000000000000000000000000000
310
00000000000000000000000000000000000000000000000000000000000000000000000000000000000000000000000000000000000000000000000000000000000000000000000000000000000000000000000000000000000000000000000000000000000000000000000000000000000000000000000000000000000000
310
00000000000000000000000000000000000000000000000000000000000000000000000000000000000000000000000000000000000000000000000000000000000000000000000000000000000000000000000000000000000000000000000000000000000000000000000000000000000000000000000000000000000000
310
00000000000000000000000000000000000000000000000000000000000000000000000000000000000000000000000000000000000000000000000000000000000000000000000000000000000000000000000000000000000000000000000000000000000000000000000000000000000000000000000000000000000000
310
00000000000000000000000000000000000000000000000000000000000000000000000000000000000000000000000000000000000000000000000000000000000000000000000000000000000000000000000000000000000000000000000000000000000000000000000000000000000000000000000000000000000000
310
00000000000000000000000000000000000000000000000000000000000000000000000000000000000000000000000000000000000000000000000000000000000000000000000000000000000000000000000000000000000000000000000000000000000000000000000000000000000000000000000000000000000000
310
00000000000000000000000000000000000000000000000000000000000000000000000000000000000000000000000000000000000000000000000000000000000000000000000000000000000000000000000000000000000000000000000000000000000000000000000000000000000000000000000000000000000000
310
00000000000000000000000000000000000000000000000000000000000000000000000000000000000000000000000000000000000000000000000000000000000000000000000000000000000000000000000000000000000000000000000000000000000000000000000000000000000000000000000000000000000000
310
00000000000000000000000000000000000000000000000000000000000000000000000000000000000000000000000000000000000000000000000000000000000000000000000000000000000000000000000000000000000000000000000000000000000000000000000000000000000000000000000000000000000000
310
00000000000000000000000000000000000000000000000000000000000000000000000000000000000000000000000000000000000000000000000000000000000000000000000000000000000000000000000000000000000000000000000000000000000000000000000000000000000000000000000000000000000000
310
00000000000000000000000000000000000000000000000000000000000000000000BEBEBEBEBEBEBEBE0000000000000000000000000000000000000000000000000000000000000000000000000000000000000000000000000000000000000000000000000000000000000000BEBEBEBEBEBEBE00000000000000000000
310
00000000000000000000000000000000000000000000000000000000000000000000000000000000000000000000000000000000000000000000000000000000000000000000000000000000000000000000000000000000000000000000000000000000000000000000000000000000000000000000000000000000000000
310
000000000000000000000000000000000000000000000000000000000000000000000000BE000000000000000000000000000000000000000000000000000000000000000000000000000000000000000000000000000000000000000000000000000000000000000000000000000000000000000000BE0000000000000000
310
00000000000000000000000000000000000000000000000000000000000000000000000000000000000000000000000000000000000000000000000000000000000000000000000000000000000000000000000000000000000000000000000000000000000000000000000000000000000000000000000000000000000000
310
0000000000000000000000000000000000000000000000000000000000000000000000000000BE0000BEBEBEBEBEBEBEBEBEBEBEBEBEBEBEBEBEBEBEBEBEBEBEBEBEBEBEBEBEBEBEBEBEBEBEBEBEBEBEBEBEBEBEBEBEBEBEBEBEBEBEBEBEBEBEBEBEBEBEBEBEBEBEBEBEBEBEBEBEBEBEBEBEBEBEBEBEBE00BE000000000000
310
00000000000000000000000000000000000000000000000000000000000000000000000000000000000000000000000000000000000000000000000000000000000000000000000000000000000000000000000000000000000000000000000000000000000000000000000000000000000000000000000000000000000000
310
00000000000000000000000000000000000000000000000000000000000000000000000000000000BE0000BE000000000000000000000000000000000000000000000000000000000000000000000000000000000000000000F500000000000000000000F5F5000000000000000000F50000000000000000BE00BE00000000
310
00000000000000000000000000000000000000000000000000000000000000000000000000000000000000000000000000000000000000000000000000000000000000000000000000000000000000000000000000000000000000000000000000000000000000000000000000000000000000000000000000000000000000
310
000000000000000000000000000000000000000000000000000000000000000000000000000000000000BE0000BE000000000000000000000000000000F5F5F5F5F5F5F5F5000000000000000000000000000000000000F5F5F500F5F5F5F5F5F5000000F5F5F5F5F5000000F5F5F5F500F5F5F5F5F500000000BE00BE0000
310
00000000000000000000000000000000000000000000000000000000000000000000000000000000000000000000000000000000000000000000000000000000000000000000000000000000000000000000000000000000000000000000000000000000000000000000000000000000000000000000000000000000000000
310
0000000000000000000000000000000000000000000000000000000000000000000000000000000000000000BE0000BE000000000000000000000000000000F5F5F5F5F5F5F5F5F5F5F5F500000000000000000000000000000000000000000000000000000000000000000000000000000000000000000000000000BE00BE
310
00000000000000000000000000000000000000000000000000000000000000000000000000000000000000000000000000000000000000000000000000000000000000000000000000000000000000000000000000000000000000000000000000000000000000000000000000000000000000000000000000000000000000
310
00000000000000000000000000000000000000000000000000000000000000000000000000000000000000000000BE0000BE0000000000000000000000000000F5F5F5F5F5F5F5F5F5F5F5F5F5F5F5F5F5F5F5F500000000000000F5F5F5F5F5F5F5F5F5F5F5F5F5F5F5F5F5F5F5F5F5F5F5F5F5F5F5F5F5F5F5F5F5F5F5BE
310
00BE0000000000000000000000000000000000000000000000000000000000000000000000000000000000000000000000000000000000000000000000000000000000000000000000000000000000000000000000000000000000000000000000000000000000000000000000000000000000000000000000000000000000
310
000000000000000000000000000000000000000000000000000000000000000000000000000000000000000000000000000000BE0000000000000000000000000000F5F5F5F5F5F5F5F5F5F5F5F5F5F5F5F5F5F5F5F500000000000000F5F5F500F5F5F5F5F5F5F5F5F5F50000000000000000000000282800000000000000
310
00BE0000000000000000000000000000000000000000000000000000000000000000000000000000000000000000000000000000000000000000000000000000000000000000000000000000000000000000000000000000000000000000000000000000000000000000000000000000000000000000000000000000000000
310
0000000000000000000000000000000000000000000000000000000000000000000000000000000000000000000000000000000000BE0000000000000000000000000000F5F5F5F5F5F5F5F5F5F5F5F5F5F5F5F5F5F5F5F5000000000000000000000028282828282828282828282828282828282828282828282828282828
310
000000BE000000000000000000000000000000000000000000000000000000000000000000000000000000000000000000000000000000000000000000000000000000000000000000000000000000000000000000000000000000000000000000000000000000000000000000000000000000000000000000000000000000
310
00000000000000000000000000000000000000000000000000000000000000000000000000000000000000000000000000000000000000BE0000000000000000000000000000F5F5F5F5F5F5F5F5F5F5F5F5F5F5F5F5F5F5F5F500000000000000000000002828282828282828282828282828282828282828282828282828
310
2828000000BE00000000000000000000000000000000000000000000000000000000000000000000000000000000000000000000000000000000000000000000000000000000000000000000000000000000000000000000000000000000000000000000000000000000000000000000000000000000000000000000000000
310
000000000000000000000000000000000000000000000000000000000000000000000000000000000000000000000000000000000000000000BE000000000000000000000000000000000000000000000000000000000000000000000000000000000000000000000000000000000000000000000000000000000000000000
310
00000000000000BE0000000000000000000000000000000000000000000000000000000000000000000000000000000000000000000000000000000000000000000000000000000000000000000000000000000000000000000000000000000000000000000000000000000000000000000000000000000000000000000000
310
0000000000000000000000000000000000000000000000000000000000000000000000000000000000000000000000000000000000000000000000BE00000000000000000000000000000000000000000000000000000000000000000000000000000000000000000000000000000000000000000000000000000000000000
310
000000000000000000BE000000000000000000000000000000000000000000000000000000000000000000000000000000000000000000000000000000000000000000000000000000000000000000000000000000000000000000000000000000000000000000000000000000000000000000000000000000000000000000
310
00000000000000000000000000000000000000000000000000000000000000000000000000000000000000000000000000000000000000000000000000BE0000000000000000000000000000000000000000000000000000000000000000000000000000000000000000000000000000000000000000000000000000000000
310
0000000000000000000000BE00000000000000000000000000000000000000000000000000000000000000000000000000000000000000000000000000000000000000000000000000000000000000000000000000000000000000000000000000000000000000000000000000000000000000000000000000000000000000
310
000000000000000000000000000000000000000000000000000000000000000000000000000000000000000000000000000000000000000000000000000000BE000000000000000000000000000000000000000000000000000000000000000000000000000000000000000000000000000000000000000000000000000000
310
00000000000000000000000000BE0000000000000000000000000000000000000000000000000000000000000000000000000000000000000000000000000000000000000000000000000000000000000000000000000000000000000000000000000000000000000000000000000000000000000000000000000000000000
310
0000000000000000000000000000000000000000000000000000000000000000000000000000000000000000000000000000000000000000000000000000000000BE00000000000000000000000000000000000000000000000000000000000000000000000000000000000000000000000000000000000000000000000000
310
000000000000000000000000000000BE000000000000000000000000000000000000000000000000000000000000000000000000000000000000000000000000000000000000000000000000000000000000000000000000000000000000000000000000000000000000000000000000000000000000000000000000000000
310
00000000000000000000000000000000000000000000000000000000000000000000000000000000000000000000000000000000000000000000000000000000000000BE0000000000000000000000000000000000000000000000000000000000000000000000000000000000000000000000000000000000000000000000
310
0000000000000000000000000000000000BE00000000000000000000000000000000000000000000000000000000000000000000000000000000000000000000000000000000000000000000000000000000000000000000000000000000000000000000000000000000000000000000000000000000000000000000000000
310
000000000000000000000000000000000000000000000000000000000000000000000000000000000000000000000000000000000000000000000000000000000000000000BE000000000000000000000000000000000000000000000000000000000000000000000000000000000000000000000000000000000000000000
310
00000000000000000000000000000000000000BE0000000000000000000000000000000000000000000000000000000000000000000000000000000000000000000000000000000000000000000000000000000000000000000000000000000000000000000000000000000000000000000000000000000000000000000000
310
0000000000000000000000000000000000000000000000000000000000000000000000000000000000000000000000000000000000000000000000000000000000000000000000BE00000000000000000000000000000000000000000000000000000000000000000000000000000000000000000000000000000000000000
310
000000000000000000000000000000000000000000BE000000000000000000000000000000000000000000000000000000000000000000000000000000000000000000000000000000000000000000000000000000000000000000000000000000000000000000000000000000000000000000000000000000000000000000
310
00000000000000000000000000000000000000000000000000000000000000000000000000000000000000000000000000000000000000000000000000000000000000000000000000BE0000000000000000000000000000000000000000000000000000000000000000000000000000000000000000000000000000000000
310
0000000000000000000000000000000000000000000000BE00000000000000000000000000000000000000000000000000000000000000000000000000000000000000000000000000000000000000000000000000000000000000000000000000000000000000000000000000000000000000000000000000000000000000
310
000000000000000000000000000000000000000000000000000000000000000000000000000000000000000000000000000000000000000000000000000000000000000000000000000000BE000000000000000000000000000000000000000000000000000000000000000000000000000000000000000000000000000000
310
00000000000000000000000000000000000000000000000000BE0000000000000000000000000000000000000000000000000000000000000000000000000000000000000000000000000000000000000000000000000000000000000000000000000000000000000000000000000000000000000000000000000000000000
310
0000000000000000000000000000000000000000000000000000000000000000000000000000000000000000000000000000000000000000000000000000000000000000000000000000000000BE00000000000000000000000000000000000000000000000000000000000000000000000000000000000000000000000000
310
000000000000000000000000000000000000000000000000000000BE000000000000000000000000000000000000000000000000000000000000000000000000000000000000000000000000000000000000000000000000000000000000000000000000000000000000000000000000000000000000000000000000000000
310
00000000000000000000000000000000000000000000000000000000000000000000000000000000000000000000000000000000000000000000000000000000000000000000000000000000000000BE0000000000000000000000000000000000000000000000000000000000000000000000000000000000000000000000
310
0000000000000000000000000000000000000000000000000000000000BE00000000000000000000000000000000000000000000000000000000000000000000000000000000000000000000000000000000000000000000000000000000000000000000000000000000000000000000000000000000000000000000000000
310
000000000000000000000000000000000000000000000000000000000000000000000000000000000000000000000000000000000000000000000000000000000000000000000000000000000000000000BE000000000000000000000000000000000000000000000000000000000000000000000000000000000000000000
310
00000000000000000000000000000000000000000000000000000000000000BE0000000000000000000000000000000000000000000000000000000000000000000000000000000000000000000000000000000000000000000000000000000000000000000000000000000000000000000000000000000000000000000000
310
0000000000000000000000000000000000000000000000000000000000000000000000000000000000000000000000000000000000000000000000000000000000000000000000000000000000000000000000BE00000000000000000000000000000000000000000000000000000000000000000000000000000000000000
310
000000000000000000000000000000000000000000000000000000000000000000BE000000000000000000000000000000000000000000000000000000000000000000000000000000000000000000000000000000000000000000000000000000000000000000000000000000000000000000000000000000000000000000
310
00000000000000000000000000000000000000000000000000000000000000000000000000000000000000000000000000000000000000000000000000000000000000000000000000000000000000000000000000BE0000000000000000000000000000000000000000000000000000000000000000000000000000000000
310
0000000000000000000000000000000000000000000000000000000000000000000000BE00000000000000000000000000000000000000000000000000000000000000000000000000000000000000000000000000000000000000000000000000000000000000000000000000000000000000000000000000000000000000
310
000000000000000000000000000000000000000000000000000000000000000000000000000000000000000000000000000000000000000000000000000000000000000000000000000000000000000000000000000000BE000000000000000000000000000000000000000000000000000000000000000000000000000000
310
00000000000000000000000000000000000000000000000000000000000000000000000000BE0000000000000000000000000000000000000000000000000000000000000000000000000000000000000000000000000000000000000000000000000000000000000000000000000000000000000000000000000000000000
310
0000000000000000000000000000000000000000000000000000000000000000000000000000000000000000000000000000000000000000000000000000000000000000000000000000000000000000000000000000000000BE00000000000000000000000000000000000000000000000000000000000000000000000000
310
000000000000000000000000000000000000000000000000000000000000000000000000000000BE000000000000000000000000000000000000000000000000000000000000000000000000000000000000000000000000000000000000000000000000000000000000000000000000000000000000000000000000000000
310
00000000000000000000000000000000000000000000000000000000000000000000000000000000000000000000000000000000000000000000000000000000000000000000000000000000000000000000000000000000000000BE0000000000000000000000000000000000000000000000000000000000000000000000
310
0000000000000000000000000000000000000000000000000000000000000000000000000000000000BE00000000000000000000000000000000000000000000000000000000000000000000000000000000000000000000000000000000000000000000000000000000000000000000000000000000000000000000000000
310
000000000000000000000000000000000000000000000000000000000000000000000000000000000000000000000000000000000000000000000000000000000000000000000000000000000000000000000000000000000000000000BE000000000000000000000000000000000000000000000000000000000000000000
310
00000000000000000000000000000000000000000000000000000000000000000000000000000000000000BE0000000000000000000000000000000000000000000000000000000000000000000000000000000000000000000000000000000000000000000000000000000000000000000000000000000000000000000000
310
0000000000000000000000000000000000000000000000000000000000000000000000000000000000000000000000000000000000000000000000000000000000000000000000000000000000000000000000000000000000000000000000BE00000000000000000000000000000000000000000000000000000000000000
310
000000000000000000000000000000000000000000000000000000000000000000000000000000000000000000BE000000000000000000000000000000000000000000000000000000000000000000000000000000000000000000000000000000000000000000000000000000000000000000000000000000000000000000
310
00000000000000000000000000000000000000000000000000000000000000000000000000000000000000000000000000000000000000000000000000000000000000000000000000000000000000000000000000000000000000000000000000BE0000000000000000000000000000000000000000000000000000000000
310
0000000000000000000000000000000000000000000000000000000000000000000000000000000000000000000000BE00000000000000000000000000000000000000000000000000000000000000000000000000000000000000000000000000000000000000000000000000000000000000000000000000000000000000
310
000000000000000000000000000000000000000000000000000000000000000000000000000000000000000000000000000000000000000000000000000000000000000000000000000000000000000000000000000000000000000000000000000000BE000000000000000000000000000000000000000000000000000000
310
00000000000000000000000000000000000000000000000000000000000000000000000000000000000000000000000000BE0000000000000000000000000000000000000000000000000000000000000000000000000000000000000000000000000000000000000000000000000000000000000000000000000000000000
310
0000000000000000000000000000000000000000000000000000000000000000000000000000000000000000000000000000000000000000000000000000000000000000000000000000000000000000000000000000000000000000000000000000000000BE00000000000000000000000000000000000000000000000000
310
000000000000000000000000000000000000000000000000000000000000000000000000000000000000000000000000000000BE000000000000000000000000000000000000000000000000000000000000000000000000000000000000000000000000000000000000000000000000000000000000000000000000000000
310
00000000000000000000000000000000000000000000000000000000000000000000000000000000000000000000000000000000000000000000000000000000000000000000000000000000000000000000000000000000000000000000000000000000000000BE0000000000000000000000000000000000000000000000
310
0000000000000000000000000000000000000000000000000000000000000000000000000000000000000000000000000000000000BE00000000000000000000000000000000000000000000000000000000000000000000000000000000000000000000000000000000000000000000000000000000000000000000000000
310
000000000000000000000000000000000000000000000000000000000000000000000000000000000000000000000000000000000000000000000000000000000000000000000000000000000000000000000000000000000000000000000000000000000000000000BE000000000000000000000000000000000000000000
310
00000000000000000000000000000000000000000000000000000000000000000000000000000000000000000000000000000000000000BE0000000000000000000000000000000000000000000000000000000000000000000000000000000000000000000000000000000000000000000000000000000000000000000000
310
0000000000000000000000000000000000000000000000000000000000000000000000000000000000000000000000000000000000000000000000000000000000000000000000000000000000000000000000000000000000000000000000000000000000000000000000BE00000000000000000000000000000000000000
310
000000000000000000000000000000000000000000000000000000000000000000000000000000000000000000000000000000000000000000BE000000000000000000000000000000000000000000000000000000000000000000000000000000000000000000000000000000000000000000000000000000000000000000
310
00000000000000000000000000000000000000000000000000000000000000000000000000000000000000000000000000000000000000000000000000000000000000000000000000000000000000000000000000000000000000000000000000000000000000000000000000BE0000000000000000000000000000BEBEBE
310
BEBEBEBEBEBEBEBEBEBEBEBEBEBEBEBEBEBEBEBEBEBEBEBEBEBEBEBEBE000000000000000000000000000000000000000000000000000000000000BE00000000000000000000000000000000000000000000000000000000000000000000000000000000000000000000000000000000000000000000000000000000000000
310
000000000000000000000000000000000000000000000000000000000000000000000000000000000000000000000000000000000000000000000000000000000000000000000000000000000000000000000000000000000000000000000000000000000000000000000000000000BE000000000000000000000000000000
310
00000000000000000000000000000000000000000000000000000000000000000000000000000000000000000000000000000000000000000000000000BE0000000000000000000000000000000000000000000000000000000000000000000000000000000000000000000000000000000000000000000000000000000000
310
0000000000000000000000000000000000000000000000000000000000000000000000000000000000000000000000000000000000000000000000000000000000000000000000000000000000000000000000000000000000000000000000000000000000000000000000000000000000BE00000000000000000000000000
310
00BEBEBEBEBEBEBEBEBEBEBEBEBEBEBE0000000000000000000000000000000000000000000000000000000000000000000000000000000000000000000000BE000000000000000000000000000000000000000000000000000000000000000000000000000000000000000000000000000000000000000000000000000000
310
00000000000000000000000000000000000000000000000000000000000000000000000000000000000000000000000000000000000000000000000000000000000000000000000000000000000000000000000000000000000000000000000000000000000000000000000000000000000000BE0000000000000000000000
310
000000BEBEBEBEBEBEBEBEBEBEBEBEBEBEBEBEBEBEBEBEBEBEBEBEBEBEBEBEBEBEBEBEBEBEBEBEBEBEBEBEBEBEBEBEBEBE00000000000000000000000000000000BE00000000000000000000000000000000000000000000000000000000000000000000000000000000000000000000000000000000000000000000000000
310
000000000000000000000000000000000000000000000000000000000000000000000000000000000000000000000000000000000000000000000000000000000000000000000000000000000000000000000000000000000000000000000000000000000000000000000000000000000000000000BE000000000000000000
310
0000000000BEBEBEBEBEBEBEBEBEBEBEBEBEBEBEBEBEBEBEBEBEBEBEBEBEBEBEBEBEBEBEBEBEBEBEBEBEBEBEBEBEBEBEBEBEBE00000000000000000000000000000000BE0000000000000000000000000000000000000000000000000000000000000000000000000000000000000000000000000000000000000000000000
310
0000000000000000000000000000000000000000000000000000000000000000000000000000000000000000000000000000000000000000000000000000000000000000000000000000000000000000000000000000000000000000000000000000000000000000000000000000000000000000000000BE00000000000000
310
00000000000000BEBEBEBEBEBEBEBEBEBEBEBEBEBEBEBEBEBEBEBEBEBEBE000000000000000000000000000000000000000000000000000000000000000000000000000000BE000000000000000000000000000000000000000000000000000000000000000000000000000000000000000000000000000000000000000000
310
00000000000000000000000000000000000000000000000000000000000000000000000000000000000000000000000000000000000000000000000000000000000000000000000000000000000000000000000000000000000000000000000000000000000000000000000000000000000000000000000000BE0000000000
310
000000000000000000BEBEBEBEBEBEBEBEBEBEBEBEBEBE000000000000000000000000000000000000000000000000000000000000000000000000000000000000000000000000BE00000000000000000000000000000000000000000000000000000000000000000000000000000000000000000000000000000000000000
310
000000000000000000000000000000000000000000000000000000000000000000000000000000000000000000000000000000000000000000000000000000000000000000000000000000000000000000000000000000000000000000000000000000000000000000000000000000000000000000000000000000BE000000
310
0000000000000000000000BEBEBEBEBEBEBEBEBEBEBEBEBEBE000000000000000000000000000000000000000000000000000000000000000000000000000000000000000000000000BE0000000000000000000000000000000000000000000000000000000000000000000000000000000000000000000000000000000000
310
0000000000000000000000000000000000000000000000000000000000000000000000000000000000000000000000000000000000000000000000000000000000000000000000000000000000000000000000000000000000000000000000000000000000000000000000000000000000000000000000000000000000BE00
310
00000000000000000000000000BEBEBEBEBEBEBEBEBEBEBEBEBEBEBEBEBEBEBEBEBEBEBEBEBEBEBEBEBEBEBEBEBEBEBEBEBEBEBEBEBEBEBEBEBEBEBEBEBEBEBEBEBEBEBEBEBE0000000000BE000000000000000000000000000000000000000000000000000000000000000000000000000000000000000000000000000000
310
00000000000000000000000000000000000000000000000000000000000000000000000000000000000000000000000000000000000000000000000000000000000000000000000000000000000000000000000000000000000000000000000000000000000000000000000000000000000000000000000000000000000000
310
BE0000000000000000000000000000BEBEBEBEBEBEBEBEBEBEBEBEBEBEBEBEBEBEBEBEBEBEBEBEBEBEBEBEBEBEBEBEBEBEBEBEBEBEBEBEBEBEBEBEBEBEBEBEBEBEBEBEBEBEBEBEBE0000000000BE00000000000000000000000000000000000000000000000000000000000000000000000000000000000000000000000000
310
00000000000000000000000000000000000000000000000000000000000000000000000000000000000000000000000000000000000000000000000000000000000000000000000000000000000000000000000000000000000000000000000000000000000000000000000000000000000000000000000000000000000000
310
0000BE0000000000000000000000000000BEBEBEBEBEBEBEBEBEBEBEBEBEBEBEBEBEBEBEBEBEBEBEBEBEBEBEBEBEBEBE00000000000000000000000000000000000000000000000000000000000000BE0000000000000000000000000000000000000000000000000000000000000000000000000000000000000000000000
310
00000000000000000000000000000000000000000000000000000000000000000000000000000000000000000000000000000000000000000000000000000000000000000000000000000000000000000000000000000000000000000000000000000000000000000000000000000000000000000000000000000000000000
310
00000000BE0000000000000000000000000000BEBEBEBEBE000000000000000000000000000000000000000000000000000000000000000000000000000000000000000000000000000000000000000000BE000000000000000000000000000000000000000000000000000000000000000000000000000000000000000000
310
00000000000000000000000000000000000000000000000000000000000000000000000000000000000000000000000000000000000000000000000000000000000000000000000000000000000000000000000000000000000000000000000000000000000000000000000000000000000000000000000000000000000000
310
000000000000BE0000000000000000000000000000BEBEBEBEBE000000000000000000000000000000000000000000000000000000000000000000000000000000000000000000000000000000000000000000BE00000000000000000000000000000000000000000000000000000000000000000000000000000000000000
310
00000000000000000000000000000000000000000000000000000000000000000000000000000000000000000000000000000000000000000000000000000000000000000000000000000000000000000000000000000000000000000000000000000000000000000000000000000000000000000000000000000000000000
310
0000000000000000BE00000000000000000000000000000000000000000000000000000000000000000000000000000000000000000000000000000000000000000000000000000000000000000000000000000000BE0000000000000000000000000000000000000000000000000000000000000000000000000000000000
310
00000000000000000000000000000000000000000000000000000000000000000000000000000000000000000000000000000000000000000000000000000000000000000000000000000000000000000000000000000000000000000000000000000000000000000000000000000000000000000000000000000000000000
310
00000000000000000000BE00000000000000000000000000000000000000000000000000000000000000000000000000000000000000000000000000000000000000000000000000000000000000000000000000000000BE000000000000000000000000000000000000000000000000000000000000000000000000000000
310
00000000000000000000000000000000000000000000000000000000000000000000000000000000000000000000000000000000000000000000000000000000000000000000000000000000000000000000000000000000000000000000000000000000000000000000000000000000000000000000000000000000000000
310
000000000000000000000000BE0000000000000000000000000000BEBEBEBEBEBEBEBEBEBEBE000000000000000000000000000000000000000000000000000000000000000000000000000000000000000000000000000000BE00000000000000000000000000000000000000000000000000000000000000000000000000
310
00000000000000000000000000000000000000000000000000000000000000000000000000000000000000000000000000000000000000000000000000000000000000000000000000000000000000000000000000000000000000000000000000000000000000000000000000000000000000000000000000000000000000
310
0000000000000000000000000000BE0000000000000000000000000000BEBEBEBEBEBEBEBEBEBEBEBEBEBEBEBEBEBEBEBEBEBEBEBEBEBEBEBEBEBEBEBEBEBEBEBEBEBEBEBEBEBEBEBEBEBEBEBEBE00000000000000000000000000BE0000000000000000000000000000000000000000000000000000000000000000000000
310
00000000000000000000000000000000000000000000000000000000000000000000000000000000000000000000000000000000000000000000000000000000000000000000000000000000000000000000000000000000000000000000000000000000000000000000000000000000000000000000000000000000000000
310
00000000000000000000000000000000BE0000000000000000000000000000BEBEBEBEBEBEBEBEBEBEBEBEBEBEBEBEBEBEBEBEBEBEBEBEBEBEBEBEBEBEBEBEBEBEBEBEBEBEBEBEBEBEBEBEBEBEBEBEBE00000000000000000000000000BE000000000000000000000000000000000000000000000000000000000000000000
310
00000000000000000000000000000000000000000000000000000000000000000000000000000000000000000000000000000000000000000000000000000000000000000000000000000000000000000000000000000000000000000000000000000000000000000000000000000000000000000000000000000000000000
310
000000000000000000000000000000000000BE0000000000000000000000000000BEBEBEBEBEBEBEBEBEBEBEBEBEBEBEBEBEBEBEBEBEBEBEBEBEBEBEBEBEBEBEBEBEBEBEBEBEBEBEBE00000000000000000000000000000000000000000000BE00000000000000000000000000000000000000000000000000000000000000
310
00000000000000000000000000000000000000000000000000000000000000000000000000000000000000000000000000000000000000000000000000000000000000000000000000000000000000000000000000000000000000000000000000000000000000000000000000000000000000000000000000000000000000
310
0000000000000000000000000000000000000000BE0000000000000000000000000000BEBEBEBEBEBEBEBEBEBEBEBEBEBEBEBEBEBEBEBEBEBEBEBEBEBEBEBEBEBEBEBEBEBEBEBEBEBEBEBEBEBEBEBEBEBEBEBEBEBEBEBEBEBEBEBE000000000000BE0000000000000000000000000000000000000000000000000000000000
310
00000000000000000000000000000000000000000000000000000000000000000000000000000000000000000000000000000000000000000000000000000000000000000000000000000000000000000000000000000000000000000000000000000000000000000000000000000000000000000000000000000000000000
310
00000000000000000000000000000000000000000000BE0000000000000000000000000000BEBEBEBEBEBEBEBEBEBEBEBEBEBEBEBEBEBEBEBEBEBEBEBEBEBEBEBEBEBEBEBEBEBEBEBEBEBEBEBEBEBEBEBEBEBEBEBEBEBEBEBEBEBEBEBE000000000000BE000000000000000000000000000000000000000000000000000000
310
00000000000000000000000000000000000000000000000000000000000000000000000000000000000000000000000000000000000000000000000000000000000000000000000000000000000000000000000000000000000000000000000000000000000000000000000000000000000000000000000000000000000000
310
000000000000000000000000000000000000000000000000BE0000000000000000000000000000BEBEBEBEBEBEBEBEBEBEBEBEBEBEBEBEBEBEBEBEBEBEBEBEBEBEBEBEBEBEBE00000000000000000000000000000000000000000000000000000000000000BE00000000000000000000000000000000000000000000000000
310
00000000000000000000000000000000000000000000000000000000000000000000000000000000000000000000000000000000000000000000000000000000000000000000000000000000000000000000000000000000000000000000000000000000000000000000000000000000000000000000000000000000000000
310
0000000000000000000000000000000000000000000000000000BE0000000000000000000000000000BEBEBEBEBEBEBEBEBEBEBEBEBEBEBEBEBEBEBEBEBEBEBEBEBEBEBEBEBEBEBE00000000000000000000000000000000000000000000000000000000000000BE0000000000000000000000000000000000000000000000
310
00000000000000000000000000000000000000000000000000000000000000000000000000000000000000000000000000000000000000000000000000000000000000000000000000000000000000000000000000000000000000000000000000000000000000000000000000000000000000000000000000000000000000
310
00000000000000000000000000000000000000000000000000000000BE0000000000000000000000000000BEBEBEBEBE000000000000000000000000000000000000000000000000000000000000000000000000000000000000000000000000000000000000000000BE000000000000000000000000000000000000000000
310
00000000000000000000000000000000000000000000000000000000000000000000000000000000000000000000000000000000000000000000000000000000000000000000000000000000000000000000000000000000000000000000000000000000000000000000000000000000000000000000000000000000000000
310
000000000000000000000000000000000000000000000000000000000000BE00000000000000000000000000000000000000000000000000000000000000000000000000000000000000000000000000000000000000000000000000000000000000000000000000000000BE00000000000000000000000000000000000000
310
00000000000000000000000000000000000000000000000000000000000000000000000000000000000000000000000000000000000000000000000000000000000000000000000000000000000000000000000000000000000000000000000000000000000000000000000000000000000000000000000000000000000000
310
0000000000000000000000000000000000000000000000000000000000000000BE00000000000000000000000000000000000000000000000000000000000000000000000000000000000000000000000000000000000000000000000000000000000000000000000000000000BE0000000000000000000000000000000000
310
00000000000000000000000000000000000000000000000000000000000000000000000000000000000000000000000000000000000000000000000000000000000000000000000000000000000000000000000000000000000000000000000000000000000000000000000000000000000000000000000000000000000000
310
00000000000000000000000000000000000000000000000000000000000000000000BE00000000000000000000000000000000000000000000000000000000000000000000000000000000000000000000000000000000000000000000000000000000000000000000000000000000BE000000000000000000000000000000
310
00000000000000000000000000000000000000000000000000000000000000000000000000000000000000000000000000000000000000000000000000000000000000000000000000000000000000000000000000000000000000000000000000000000000000000000000000000000000000000000000000000000000000
310
000000000000000000000000000000000000000000000000000000000000000000000000BE00000000000000000000000000000000000000000000000000000000000000000000000000000000000000000000000000000000000000000000000000000000000000000000000000000000BE00000000000000000000000000
310
00000000000000000000000000000000000000000000000000000000000000000000000000000000000000000000000000000000000000000000000000000000000000000000000000000000000000000000000000000000000000000000000000000000000000000000000000000000000000000000000000000000000000
310
0000000000000000000000000000000000000000000000000000000000000000000000000000BE0000000000000000000000000000000000000000000000000000000000000000000000000000000000000000ECECECECECECECECECBEBEBEBE00000000000000000000000000000000000000BE0000000000000000000000
310
00000000000000000000000000000000000000000000000000000000000000000000000000000000000000000000000000000000000000000000000000000000000000000000000000000000000000000000000000000000000000000000000000000000000000000000000000000000000000000000000000000000000000
310
00000000000000000000000000000000000000000000000000000000000000000000000000000000BE0000000000000000000000000000000000000000000000000000000000000000000000000000000000000000EC0000000000000000BEBEBEBEBEBE0000000000000000000000000000000000BE000000000000000000
310
00000000000000000000000000000000000000000000000000000000000000000000000000000000000000000000000000000000000000000000000000000000000000000000000000000000000000000000000000000000000000000000000000000000000000000000000000000000000000000000000000000000000000
310
000000000000000000000000000000000000000000000000000000000000000000000000000000000000BE00000000000000000000000000000000000000000000000000000000000000000000000000000000000000EC0000ECECECECECECECBEBEBEBEBEBEBEBEBEBE00000000000000000000000000BE00000000000000
310
00000000000000000000000000000000000000000000000000000000000000000000000000000000000000000000000000000000000000000000000000000000000000000000000000000000000000000000000000000000000000000000000000000000000000000000000000000000000000000000000000000000000000
310
0000000000000000000000000000000000000000000000000000000000000000000000000000000000000000BE00000000000000000000000000000000000000000000000000000000000000000000000000000000000000EC0000ECECECECECECEC0000000000000000000000000000000000000000000000BE0000000000
310
00000000000000000000000000000000000000000000000000000000000000000000000000000000000000000000000000000000000000000000000000000000000000000000000000000000000000000000000000000000000000000000000000000000000000000000000000000000000000000000000000000000000000
310
00000000000000000000000000000000000000000000000000000000000000000000000000000000000000000000BE0000000000000000000000000000000000000000000000000000000000000000000000000000BEBEBEBEBEEC00EC00ECECECECECECBEBEBEBE00000000000000000000000000000000000000BE000000
310
00000000000000000000000000000000000000000000000000000000000000000000000000000000000000000000000000000000000000000000000000000000000000000000000000000000000000000000000000000000000000000000000000000000000000000000000000000000000000000000000000000000000000
310
000000000000000000000000000000000000000000000000000000000000000000000000000000000000000000000000BE000000000000000000000000000000000000000000000000000000000000000000BEBEBEBEBEBEBEBEBEECBEBEECBEECEC00000000BEBEBEBEBEBEBEBEBEBEBEBEBE00000000000000000000BE00
310
00000000000000000000000000000000000000000000000000000000000000000000000000000000000000000000000000000000000000000000000000000000000000000000000000000000000000000000000000000000000000000000000000000000000000000000000000000000000000000000000000000000000000
310
0000000000000000000000000000000000000000000000000000000000000000000000000000000000000000000000000000BE00000000000000000000000000000000000000000000000000000000BEBEBEBEBEBEBEBEBEBEBEBEBEBEECCAECBEECECBEBEECECEC0000000000000000000000000000000000000000000000
310
BE000000000000000000000000000000000000000000000000000000000000000000000000000000000000000000000000000000000000000000000000000000000000000000000000000000000000000000000000000000000000000000000000000000000000000000000000000000000000000000000000000000000000
310
00000000000000000000000000000000000000000000000000000000000000000000000000000000000000000000000000000000BE00000000000000000000000000000000000000000000BEBEBEBEBEBEBEBEBEBEBEBEBEBEBECACA2828ECCABEBEBEECECBECAECBEBEBEBEBEBEBE00000000000000000000000000000000
310
0000BE00000000000000000000000000000000000000000000000000000000000000000000000000000000000000000000000000000000000000000000000000000000000000000000000000000000000000000000000000000000000000000000000000000000000000000000000000000000000000000000000000000000
310
000000000000000000000000000000000000000000000000000000000000000000000000000000000000000000000000000000000000BE0000000000000000000000000000000000BEBEBEBEBEBEBEBEBEBEBEBEBEBECACACAECCACACA28282828C3CACAECECECCAECBEBEBEBEBEBEBEBEBEBEBEBEBE000000000000000000
310
00000000BE0000000000000000000000000000000000000000000000000000000000000000000000000000000000000000000000000000000000000000000000000000000000000000000000000000000000000000000000000000000000000000000000000000000000000000000000000000000000000000000000000000
310
0000000000000000000000000000000000000000000000000000000000000000000000000000000000000000000000000000000000000000BE000000000000000000000000BEBEBEBEBEBEBECACACABEBEBECACACACACACACACACA28CACA0028000028CACACAC3CACAC3ECCACACACACABEBEBECACACABEBEBEBEBEBEBE0000
310
000000000000BE000000000000000000000000000000000000000000000000000000000000000000000000000000000000000000000000000000000000000000000000000000000000000000000000000000000000000000000000000000000000000000000000000000000000000000000000000000000000000000000000
310
00000000000000000000000000000000000000000000000000000000000000000000000000000000000000000000000000000000000000000000BE000000000000000000BEBEBEBEBECACACACACACACACA28ECCACACACACACACA00CACA00CA00CA28ECEC28CACACA00CACA00CACAC3CACAC3C328ECCACACACACACACACABEBE
310
BEBEBE0000000000BE00000000000000000000000000000000000000000000000000000000000000000000000000000000000000000000000000000000000000000000000000000000000000000000000000000000000000000000000000000000000000000000000000000000000000000000000000000000000000000000
310
000000000000000000000000000000000000000000000000000000000000000000000000000000000000000000000000000000000000000000000000BE000000000000000000BECA28CACACACACACACACACACA28CACACACACA00CA00CACA00CACACACA28ECEC28CACACACAECCA00CACA00CACA00CACAC3CACACACACACACACA
310
CACA28CACA0000000000BE0000000000000000000000000000000000000000000000000000000000000000000000000000000000000000000000000000000000000000000000000000000000000000000000000000000000000000000000000000000000000000000000000000000000000000000000000000000000000000
310
0000000000000000000000000000000000000000000000000000000000000000000000000000000000000000000000000000000000000000000000000000BE000000000000000000CA28EC28CACACACACACACACA00CACA00CACA00CACA00CACACACACACACA2800EC28CACACACACACACA00CA00CACA00CACACA00CACACACACA
310
CACACA28EC28CA0000000000BE000000000000000000000000000000000000000000000000000000000000000000000000000000000000000000000000000000000000000000000000000000000000000000000000000000000000000000000000000000000000000000000000000000000000000000000000000000000000
310
00000000000000000000000000000000000000000000000000000000000000000000000000000000000000000000000000000000000000000000000000000000BE000000000000000000CACA28CACACA00CACA00CA00CACACA00CACACACACACACACACA00CACA0028ECEC28CACACAECCACACACACACACACACA00CACA00CACA00
310
CACA00CACA2828CACA0000000000BE00000000000000000000000000000000000000000000000000000000000000000000000000000000000000000000000000000000000000000000000000000000000000000000000000000000000000000000000000000000000000000000000000000000000000000000000000000000
310
000000000000000000000000000000000000000000000000000000000000000000000000000000000000000000000000000000000000000000000000000000000000BE00000000000000000000CACA00CA00CACA00CACA00CACACACACACACA00CACA00CA00CACA00CA28ECEC2800CACA00CACA00CACA00CACACACACACA00CA
310
CA00CACA00CACA00CACA000000000000BE0000000000000000000000000000000000000000000000000000000000000000000000000000000000000000000000000000000000000000000000000000000000000000000000000000000000000000000000000000000000000000000000000000000000000000000000000000
310
0000000000000000000000000000000000000000000000000000000000000000000000000000000000000000000000000000000000000000000000000000000000000000BE00000000000000000000CA00CACA00CACACACACACACACACA00CACA00CACA00CACA00CACACACA28000028CACACACA00CA00CACA00CACA00CACACA
310
CACACACACACACA00CA00CACA000000000000BE000000000000000000000000000000000000000000000000000000000000000000000000000000000000000000000000000000000000000000000000000000000000000000000000000000000000000000000000000000000000000000000000000000000000000000000000
310
00000000000000000000000000000000000000000000000000000000000000000000000000000000000000000000000000000000000000000000000000000000000000000000BE00000000000000000000CA00CACACACACACA00CACA00CACA00CACA00CACA00CACACACACA0028282828282800CACACACACA00CACA00CA00CA
310
CACA00CACA00CACACACACACA00CA000000000000BE00000000000000000000000000000000000000000000000000000000000000000000000000000000000000000000000000000000000000000000000000000000000000000000000000000000000000000000000000000000000000000000000000000000000000000000
310
000000000000000000000000000000000000000000000000000000000000000000000000000000000000000000000000000000000000000000000000000000000000000000000000BE000000000000000000CACACACACACA00CA00CACA00CACACA00CACACACACACA282828282828EC0F0F0F0F0F282828282828CACACACACA
310
CA00CACA00CACA00CACA00CACACACACACA0000000000BE0000000000000000000000000000000000000000000000000000000000000000000000000000000000000000000000000000000000000000000000000000000000000000000000000000000000000000000000000000000000000000000000000000000000000000
310
0000000000000000000000000000000000000000000000000000000000000000000000000000000000000000000000000000000000000000000000000000000000000000000000000000BE00000000000000000000CACA00CA00CACA00CACACACACACACACACACACACACA28EC28EC820F0F000000EC000F82ECBEEC28CACACA
310
CACACACACACA00CACACA00CA00CACA00CACA000000000000BE000000000000000000000000000000000000000000000000000000000000000000000000000000000000000000000000000000000000000000000000000000000000000000000000000000000000000000000000000000000000000000000000000000000000
310
00000000000000000000000000000000000000000000000000000000000000000000000000000000000000000000000000000000000000000000000000000000000000000000000000000000BE00000000000000000000CA00CACA00CACACACACACACACACACACACAECEC82828282EC828200EC0000EC000000828282828282
310
820000CACACACACAECCACACACACACA00CACA00CA000000000000BE00000000000000000000000000000000000000000000000000000000000000000000000000000000000000000000000000000000000000000000000000000000000000000000000000000000000000000000000000000000000000000000000000000000
310
000000000000000000000000000000000000000000000000000000000000000000000000000000000000000000000000000000000000000000000000000000000000000000000000000000000000BE00000000000000000000CACACACACACACACACACACACA0082828282828282EC828282EC0000EC0000EC00000000EC8282
310
82EC8282828282828200CACACACACACACACACACACACA000000000000BE0000000000000000000000000000000000000000000000000000000000000000000000000000000000000000000000000000000000000000000000000000000000000000000000000000000000000000000000000000000000000000000000000000
310
0000000000000000000000000000000000000000000000000000000000000000000000000000000000000000000000000000000000000000000000000000000000000000000000000000000000000000BE000000000000000000CACACACACACACACA00EC82ECCA82EC82828282EC00EC00EC00000000EC0000EC0000000000
310
0000000000EC82828282EC82CAEC82EC00CACACACACACACACA0000000000BE000000000000000000000000000000000000000000000000000000000000000000000000000000000000000000000000000000000000000000000000000000000000000000000000000000000000000000000000000000000000000000000000
310
00000000000000000000000000000000000000000000000000000000000000000000000000000000000000000000000000000000000000000000000000000000000000000000000000000000000000000000BE000000000000000000CACACACA8282CAEC82828282828282000000000000EC00EC000000EC0000EC00000000
310
00000000000000000000000082828282828282ECCA8282CACACACA0000000000BE00000000000000000000000000000000000000000000000000000000000000000000000000000000000000000000000000000000000000000000000000000000000000000000000000000000000000000000000000000000000000000000
310
000000000000000000000000000000000000000000000000000000000000000000000000000000000000000000000000000000000000000000000000000000000000000000000000000000000000000000000000BE000000000000000000CACA828282828282828200828200000000000000EC0000EC000000EC0000EC0000
310
000000000000000000000000000000EC8282008282828282828282CACA0000000000BE0000000000000000000000000000000000000000000000000000000000000000000000000000000000000000000000000000000000000000000000000000000000000000000000000000000000000000000000000000000000000000
310
0000000000000000000000000000000000000000000000000000000000000000000000000000000000000000000000000000000000000000000000000000000000000000000000000000000000000000000000000000BE00000000000000000082828282000082EC000000000000000000000000EC00EC00000000EC0000EC
310
00000000000000000000000000000000EC0000ECEC000000820000828282820000000000BE000000000000000000000000000000000000000000000000000000000000000000000000000000000000000000000000000000000000000000000000000000000000000000000000000000000000000000000000000000000000
310
00000000000000000000000000000000000000000000000000000000000000000000000000000000000000000000000000000000000000000000000000000000000000000000000000000000000000000000000000000000BE0000000000000000008282000000000000000000000000000000000000EC00EC000000EC0000
310
EC00000000000000BEBEBEBEBE0000000000EC00EC00EC000000000000000082820000000000BE00000000000000000000000000000000000000000000000000000000000000000000000000000000000000000000000000000000000000000000000000000000000000000000000000000000000000000000000000000000
310
000000000000000000000000000000000000000000000000000000000000000000000000000000000000000000000000000000000000000000000000000000000000000000000000000000000000000000000000000000000000BE000000000000000000BEBEBEBEBEBEBEBEBEBEBE0000000000000000EC0000EC000000EC
310
0000EC00000000000000BEBEBEBEBEBEBE0000EC0000EC00EC000000000000000000000000000000BE0000000000000000000000000000000000000000000000000000000000000000000000000000000000000000000000000000000000000000000000000000000000000000000000000000000000000000000000000000
310
0000000000000000000000000000000000000000000000000000000000000000000000000000000000000000000000000000000000000000000000000000000000000000000000000000000000000000000000000000000000000000BE000000000000000000000000000000000000000000ECECECECECECECEC00EC000000
310
00EC00EC00000000000000000000000000000000ECEC0000ECEC00000000000000000000000000000000BE000000000000000000000000000000000000000000000000000000000000000000000000000000000000000000000000000000000000000000000000000000000000000000000000000000000000000000000000
310
00000000000000000000000000000000000000000000000000000000000000000000000000000000000000000000000000000000000000000000000000000000000000000000000000000000000000000000000000000000000000000000BE000000000000000000BEBEBEBEBEBE00ECECECECECECECECECECECECECECEC00
310
000000EC00EC0000000000000000BEBEBEBEBEBEBEBE000000EC00EC00000000000000000000000000000000BE00000000000000000000000000000000000000000000000000000000000000000000000000000000000000000000000000000000000000000000000000000000000000000000000000000000000000000000
310
000000000000000000000000000000000000000000000000000000000000000000000000000000000000000000000000000000000000000000000000000000000000000000000000000000000000000000000000000000000000000000000000BE000000000000000000BEBEBEBEBEBEBEBE00000000000000000000000000
310
00000000EC0000EC0000000000000000000000000000000000ECECECEC0000000000000000000000000000000000BE0000000000000000000000000000000000000000000000000000000000000000000000000000000000000000000000000000000000000000000000000000000000000000000000000000000000000000
310
0000000000000000000000000000000000000000000000000000000000000000000000000000000000000000000000000000000000000000000000000000000000000000000000000000000000000000000000000000000000000000000000000000BE000000000000000000000000000000000000ECECECECECECECECECEC
310
ECECECECECECEC00EC000000000000000000BEBEBEBEBEBEBEBEBE00ECECEC0000000000000000000000000000000000BE000000000000000000000000000000000000000000000000000000000000000000000000000000000000000000000000000000000000000000000000000000000000000000000000000000000000
310
00000000000000000000000000000000000000000000000000000000000000000000000000000000000000000000000000000000000000000000000000000000000000000000000000000000000000000000000000000000000000000000000000000000BE000000000000000000BEBEBEBEBEBEBEBEBEBEBEBEBEBEBE00EC
310
ECECECECECECECECECECEC000000000000000000000000000000000000000000000000000000000000000000000000000000BE00000000000000000000000000000000000000000000000000000000000000000000000000000000000000000000000000000000000000000000000000000000000000000000000000000000
310
000000000000000000000000000000000000000000000000000000000000000000000000000000000000000000000000000000000000000000000000000000000000000000000000000000000000000000000000000000000000000000000000000000000000BE000000000000000000000000000000000000000000000000
310
00000000000000000000000000000000000000000000000000000000000000000000000000000000000000000000000000000000BE0000000000000000000000000000000000000000000000000000000000000000000000000000000000000000000000000000000000000000000000000000000000000000000000000000
310
0000000000000000000000000000000000000000000000000000000000000000000000000000000000000000000000000000000000000000000000000000000000000000000000000000000000000000000000000000000000000000000000000000000000000000BE00000000000000000000000000000000000000000000
310
000000000000000000000000000000000000000000000000000000000000000000000000000000000000000000000000000000000000BE000000000000000000000000000000000000000000000000000000000000000000000000000000000000000000000000000000000000000000000000000000000000000000000000
310
00000000000000000000000000000000000000000000000000000000000000000000000000000000000000000000000000000000000000000000000000000000000000000000000000000000000000000000000000000000000000000000000000000000000000000000BE0000000000000000000000000000000000000000
310
0000000000000000000000000000000000000000000000000000000000000000000000000000000000000000000000000000000000000000BE00000000000000000000000000000000000000000000000000000000000000000000000000000000000000000000000000000000000000000000000000000000000000000000
310
000000000000000000000000000000000000000000000000000000000000000000000000000000000000000000000000000000000000000000000000000000000000000000000000000000000000000000000000000000000000000000000000000000000000000000000000BE000000000000000000000000000000000000
310
00000000000000000000000000000000000000000000000000000000000000000000000000000000000000000000000000000000000000000000BE0000000000000000000000000000000000000000000000000000000000000000000000000000000000000000000000000000000000000000000000000000000000000000
310
0000000000000000000000000000000000000000000000000000000000000000000000000000000000000000000000000000000000000000000000000000000000000000000000000000000000000000000000000000000000000000000000000000000000000000000000000000BE00000000000000000000000000000000
310
000000000000000000000000000000000000000000000000000000000000000000000000000000000000000000000000000000000000000000000000BE000000000000000000000000000000000000000000000000000000000000000000000000000000000000000000000000000000000000000000000000000000000000
310
00000000000000000000000000000000000000000000000000000000000000000000000000000000000000000000000000000000000000000000000000000000000000000000000000000000000000000000000000000000000000000000000000000000000000000000000000000000BE0000000000000000000000000000
310
0000000000000000000000000000000000000000000000000000000000000000000000000000000000000000000000000000000000000000000000000000BE00000000000000000000000000000000000000000000000000000000000000000000000000000000000000000000000000000000000000000000000000000000
310
000000000000000000000000000000000000000000000000000000000000000000000000000000000000000000000000000000000000000000000000000000000000000000000000000000000000000000000000000000000000000000000000000000000000000000000000000000000000BE000000000000000000000000
310
00000000000000000000000000000000000000000000000000000000000000000000000000000000000000000000000000000000000000000000000000000000BE0000000000000000000000000000000000000000000000000000000000000000000000000000000000000000000000000000000000000000000000000000
310
0000000000000000000000000000000000000000000000000000000000000000000000000000000000000000000000000000000000000000000000000000000000000000000000000000000000000000000000000000000000000000000000000000000000000000000000000000000000000000BE00000000000000000000
310
000000000000000000000000000000000000000000000000000000000000000000000000000000000000000000000000000000000000000000000000000000000000BE000000000000000000000000000000000000000000000000000000000000000000000000000000000000000000000000000000000000000000000000
310
00000000000000000000000000000000000000000000000000000000000000000000000000000000000000000000000000000000000000000000000000000000000000000000000000000000000000000000000000000000000000000000000000000000000000000000000000000000000000000000BE0000000000000000
310
0000000000000000000000000000000000000000000000000000000000000000000000000000000000000000000000000000000000000000000000000000000000000000BE00000000000000000000000000000000000000000000000000000000000000000000000000000000000000000000000000000000000000000000
310
000000000000000000000000000000000000000000000000000000000000000000000000000000000000000000000000000000000000000000000000000000000000000000000000000000000000000000000000000000000000000000000000000000000000000000000000000000000000000000000000BE000000000000
310
00000000000000000000000000000000000000000000000000000000000000000000000000000000000000000000000000000000000000000000000000000000000000000000BE0000000000000000000000000000000000000000000000000000000000000000000000000000000000000000000000000000000000000000
310
0000000000000000000000000000000000000000000000000000000000000000000000000000000000000000000000000000000000000000000000000000000000000000000000000000000000000000000000000000000000000000000000000000000000000000000000000000000000000000000000000000BE00000000
310
000000000000000000000000000000000000000000000000000000000000000000000000000000000000000000000000000000000000000000000000000000000000000000000000BE000000000000000000000000000000000000000000000000000000000000000000000000000000000000000000000000000000000000
310
00000000000000000000000000000000000000000000000000000000000000000000000000000000000000000000000000000000000000000000000000000000000000000000000000000000000000000000000000000000000000000000000000000000000000000000000000000000000000000000000000000000BE0000
310
0000000000000000000000000000000000000000000000000000000000000000000000000000000000000000000000000000000000000000000000000000000000000000000000000000BE00000000000000000000000000000000000000000000000000000000000000000000000000000000000000000000000000000000
310
000000000000000000000000000000000000000000000000000000000000000000000000000000000000000000000000000000000000000000000000000000000000000000000000000000000000000000000000000000000000000000000000000000000000000000000000000000000000000000000000000000BE0000BE
310
00000000000000000000000000000000000000000000000000000000000000000000000000000000000000000000000000000000000000000000000000000000000000000000000000000000BE00BE000000000000000000000000000000000000000000000000000000000000000000000000000000000000000000000000
310
0000000000000000000000000000000000000000000000000000000000000000000000000000000000000000000000000000000000000000000000000000000000000000000000000000000000000000000000000000000000000000000000000000000000000000000000000000000000000000000000000000000000BE00
310
00BE00000000000000000000000000000000000000000000000000000000000000000000000000000000000000000000000000000000000000000000000000000000000000000000000000000000BE00BE00000000000000000000000000000000000000000000000000000000000000000000000000000000000000000000
310
00000000000000000000000000000000000000000000000000000000000000000000000000000000000000000000000000000000000000000000000000000000000000000000000000000000000000000000000000000000000000000000000000000000000000000000000000000000000000000000000000000000000000
310
BE0000BE00000000000000000000000000000000000000000000000000000000000000000000000000000000000000000000000000000000000000000000000000000000000000000000000000000000BE00BE0000000000000000000000000000000000000000000000000000000000000000000000000000000000000000
310
0000000000000000000000000000000000000000000000000000000000000000000000000000000000000000000000000000
  0
XRECORD
  5
1117D
102
{ACAD_REACTORS
330
1117C
102
}
330
1117C
100
AcDbXrecord
280
     1
102
MATERIAL
148
0.0
149
0.0
149
0.0
 93
        0
 94
       63
282
     0
 72
     1
 77
     1
171
     1
175
     1
179
     1
273
     0
  0
XRECORD
  5
1117B
102
{ACAD_REACTORS
330
1117A
102
}
330
1117A
100
AcDbXrecord
280
     1
102
MATERIAL
148
0.0
149
0.0
149
0.0
 93
        0
 94
       63
282
     0
 72
     1
 77
     1
171
     1
175
     1
179
     1
273
     0
  0
XRECORD
  5
1117F
102
{ACAD_REACTORS
330
1117E
102
}
330
1117E
100
AcDbXrecord
280
     1
102
MATERIAL
148
0.0
149
0.0
149
0.0
 93
        0
 94
       63
282
     0
 72
     1
 77
     1
171
     1
175
     1
179
     1
273
     0
  0
XRECORD
  5
11147
102
{ACAD_REACTORS
330
11146
102
}
330
11146
100
AcDbXrecord
280
     1
102
ACAD_ROUNDTRIP_2012_MLEADER_STYLE
298
     1
  0
CELLSTYLEMAP
  5
11176
102
{ACAD_REACTORS
330
10A30
102
}
330
10A30
100
AcDbCellStyleMap
 90
        3
300
CELLSTYLE
  1
TABLEFORMAT_BEGIN
 90
        5
170
     1
 91
        0
 92
    32768
 62
   257
 93
        1
300
CONTENTFORMAT
  1
CONTENTFORMAT_BEGIN
 90
        0
 91
        0
 92
      512
 93
        0
300

 40
0.0
140
1.0
 94
        5
 62
     0
340
F
144
6.0
309
CONTENTFORMAT_END
171
     1
301
MARGIN
  1
CELLMARGIN_BEGIN
 40
1.5
 40
1.5
 40
1.5
 40
1.5
 40
0.18
 40
0.18
309
CELLMARGIN_END
 94
        6
 95
        1
302
GRIDFORMAT
  1
GRIDFORMAT_BEGIN
 90
        0
 91
        1
 62
     0
 92
       -2
340
0
 93
        0
 40
0.045
309
GRIDFORMAT_END
 95
        2
302
GRIDFORMAT
  1
GRIDFORMAT_BEGIN
 90
        0
 91
        1
 62
     0
 92
       -2
340
0
 93
        0
 40
0.045
309
GRIDFORMAT_END
 95
        4
302
GRIDFORMAT
  1
GRIDFORMAT_BEGIN
 90
        0
 91
        1
 62
     0
 92
       -2
340
0
 93
        0
 40
0.045
309
GRIDFORMAT_END
 95
        8
302
GRIDFORMAT
  1
GRIDFORMAT_BEGIN
 90
        0
 91
        1
 62
     0
 92
       -2
340
0
 93
        0
 40
0.045
309
GRIDFORMAT_END
 95
       16
302
GRIDFORMAT
  1
GRIDFORMAT_BEGIN
 90
        0
 91
        1
 62
     0
 92
       -2
340
0
 93
        0
 40
0.045
309
GRIDFORMAT_END
 95
       32
302
GRIDFORMAT
  1
GRIDFORMAT_BEGIN
 90
        0
 91
        1
 62
     0
 92
       -2
340
0
 93
        0
 40
0.045
309
GRIDFORMAT_END
309
TABLEFORMAT_END
  1
CELLSTYLE_BEGIN
 90
        1
 91
        1
300
_TITLE
309
CELLSTYLE_END
300
CELLSTYLE
  1
TABLEFORMAT_BEGIN
 90
        5
170
     1
 91
        0
 92
        0
 62
   257
 93
        1
300
CONTENTFORMAT
  1
CONTENTFORMAT_BEGIN
 90
        0
 91
        0
 92
      512
 93
        0
300

 40
0.0
140
1.0
 94
        5
 62
     0
340
F
144
4.5
309
CONTENTFORMAT_END
171
     1
301
MARGIN
  1
CELLMARGIN_BEGIN
 40
1.5
 40
1.5
 40
1.5
 40
1.5
 40
0.18
 40
0.18
309
CELLMARGIN_END
 94
        6
 95
        1
302
GRIDFORMAT
  1
GRIDFORMAT_BEGIN
 90
        0
 91
        1
 62
     0
 92
       -2
340
0
 93
        0
 40
0.045
309
GRIDFORMAT_END
 95
        2
302
GRIDFORMAT
  1
GRIDFORMAT_BEGIN
 90
        0
 91
        1
 62
     0
 92
       -2
340
0
 93
        0
 40
0.045
309
GRIDFORMAT_END
 95
        4
302
GRIDFORMAT
  1
GRIDFORMAT_BEGIN
 90
        0
 91
        1
 62
     0
 92
       -2
340
0
 93
        0
 40
0.045
309
GRIDFORMAT_END
 95
        8
302
GRIDFORMAT
  1
GRIDFORMAT_BEGIN
 90
        0
 91
        1
 62
     0
 92
       -2
340
0
 93
        0
 40
0.045
309
GRIDFORMAT_END
 95
       16
302
GRIDFORMAT
  1
GRIDFORMAT_BEGIN
 90
        0
 91
        1
 62
     0
 92
       -2
340
0
 93
        0
 40
0.045
309
GRIDFORMAT_END
 95
       32
302
GRIDFORMAT
  1
GRIDFORMAT_BEGIN
 90
        0
 91
        1
 62
     0
 92
       -2
340
0
 93
        0
 40
0.045
309
GRIDFORMAT_END
309
TABLEFORMAT_END
  1
CELLSTYLE_BEGIN
 90
        2
 91
        1
300
_HEADER
309
CELLSTYLE_END
300
CELLSTYLE
  1
TABLEFORMAT_BEGIN
 90
        5
170
     1
 91
        0
 92
        0
 62
   257
 93
        1
300
CONTENTFORMAT
  1
CONTENTFORMAT_BEGIN
 90
        0
 91
        0
 92
      512
 93
        0
300

 40
0.0
140
1.0
 94
        2
 62
     0
340
F
144
4.5
309
CONTENTFORMAT_END
171
     1
301
MARGIN
  1
CELLMARGIN_BEGIN
 40
1.5
 40
1.5
 40
1.5
 40
1.5
 40
0.18
 40
0.18
309
CELLMARGIN_END
 94
        6
 95
        1
302
GRIDFORMAT
  1
GRIDFORMAT_BEGIN
 90
        0
 91
        1
 62
     0
 92
       -2
340
0
 93
        0
 40
0.045
309
GRIDFORMAT_END
 95
        2
302
GRIDFORMAT
  1
GRIDFORMAT_BEGIN
 90
        0
 91
        1
 62
     0
 92
       -2
340
0
 93
        0
 40
0.045
309
GRIDFORMAT_END
 95
        4
302
GRIDFORMAT
  1
GRIDFORMAT_BEGIN
 90
        0
 91
        1
 62
     0
 92
       -2
340
0
 93
        0
 40
0.045
309
GRIDFORMAT_END
 95
        8
302
GRIDFORMAT
  1
GRIDFORMAT_BEGIN
 90
        0
 91
        1
 62
     0
 92
       -2
340
0
 93
        0
 40
0.045
309
GRIDFORMAT_END
 95
       16
302
GRIDFORMAT
  1
GRIDFORMAT_BEGIN
 90
        0
 91
        1
 62
     0
 92
       -2
340
0
 93
        0
 40
0.045
309
GRIDFORMAT_END
 95
       32
302
GRIDFORMAT
  1
GRIDFORMAT_BEGIN
 90
        0
 91
        1
 62
     0
 92
       -2
340
0
 93
        0
 40
0.045
309
GRIDFORMAT_END
309
TABLEFORMAT_END
  1
CELLSTYLE_BEGIN
 90
        3
 91
        2
300
_DATA
309
CELLSTYLE_END
  0
XRECORD
  5
111A0
102
{ACAD_REACTORS
330
10A30
102
}
330
10A30
100
AcDbXrecord
280
     1
102
ACAD_ROUNDTRIP_PRE2007_TABLESTYLE
 90
      512
 91
        0
  1

 92
      512
 93
        0
  2

 94
      512
 95
        0
  3

  0
XRECORD
  5
1118B
102
{ACAD_REACTORS
330
1118A
102
}
330
1118A
100
AcDbXrecord
280
     1
102
RTVSPropertyOp0
 70
     1
102
RTVSPropertyOp1
 70
     1
102
RTVSPropertyOp2
 70
     1
102
RTVSPropertyOp3
 70
     1
102
RTVSPropertyOp4
 70
     1
102
RTVSPropertyOp5
 70
     1
102
RTVSPropertyOp6
 70
     1
102
RTVSPropertyOp7
 70
     1
102
RTVSPropertyOp8
 70
     1
102
RTVSPropertyOp9
 70
     1
102
RTVSPropertyOp10
 70
     1
102
RTVSPropertyOp11
 70
     1
102
RTVSPropertyOp12
 70
     1
102
RTVSPropertyOp13
 70
     1
102
RTVSPropertyOp14
 70
     1
102
RTVSPropertyOp15
 70
     1
102
RTVSPropertyOp16
 70
     1
102
RTVSPropertyOp17
 70
     1
102
RTVSPropertyOp18
 70
     1
102
RTVSPropertyOp19
 70
     1
102
RTVSPropertyOp20
 70
     1
102
RTVSPropertyOp21
 70
     1
102
RTVSPropertyOp22
 70
     1
102
RTVSPropertyOp23
 70
     1
102
RTVSPropertyOp24
 70
     1
102
RTVSPropertyOp25
 70
     1
102
RTVSPropertyOp26
 70
     1
102
RTVSPropertyOp27
 70
     1
102
RTVSPropertyOp28
 70
     1
102
RTVSPropertyOp29
 70
     1
102
RTVSPropertyOp30
 70
     1
102
RTVSPropertyOp31
 70
     1
102
RTVSPropertyOp32
 70
     1
  0
XRECORD
  5
1118F
102
{ACAD_REACTORS
330
1118E
102
}
330
1118E
100
AcDbXrecord
280
     1
102
RTVSPropertyOp0
 70
     1
102
RTVSPropertyOp1
 70
     1
102
RTVSPropertyOp2
 70
     1
102
RTVSPropertyOp3
 70
     1
102
RTVSPropertyOp4
 70
     1
102
RTVSPropertyOp5
 70
     1
102
RTVSPropertyOp6
 70
     1
102
RTVSPropertyOp7
 70
     1
102
RTVSPropertyOp8
 70
     1
102
RTVSPropertyOp9
 70
     1
102
RTVSPropertyOp10
 70
     1
102
RTVSPropertyOp11
 70
     1
102
RTVSPropertyOp12
 70
     1
102
RTVSPropertyOp13
 70
     1
102
RTVSPropertyOp14
 70
     1
102
RTVSPropertyOp15
 70
     1
102
RTVSPropertyOp16
 70
     1
102
RTVSPropertyOp17
 70
     1
102
RTVSPropertyOp18
 70
     1
102
RTVSPropertyOp19
 70
     1
102
RTVSPropertyOp20
 70
     1
102
RTVSPropertyOp21
 70
     1
102
RTVSPropertyOp22
 70
     1
102
RTVSPropertyOp23
 70
     1
102
RTVSPropertyOp24
 70
     1
102
RTVSPropertyOp25
 70
     1
102
RTVSPropertyOp26
 70
     1
102
RTVSPropertyOp27
 70
     1
102
RTVSPropertyOp28
 70
     1
102
RTVSPropertyOp29
 70
     1
102
RTVSPropertyOp30
 70
     1
102
RTVSPropertyOp31
 70
     1
102
RTVSPropertyOp32
 70
     1
  0
XRECORD
  5
1118D
102
{ACAD_REACTORS
330
1118C
102
}
330
1118C
100
AcDbXrecord
280
     1
102
RTVSPropertyOp0
 70
     1
102
RTVSPropertyOp1
 70
     1
102
RTVSPropertyOp2
 70
     1
102
RTVSPropertyOp3
 70
     1
102
RTVSPropertyOp4
 70
     1
102
RTVSPropertyOp5
 70
     1
102
RTVSPropertyOp6
 70
     1
102
RTVSPropertyOp7
 70
     1
102
RTVSPropertyOp8
 70
     1
102
RTVSPropertyOp9
 70
     1
102
RTVSPropertyOp10
 70
     1
102
RTVSPropertyOp11
 70
     1
102
RTVSPropertyOp12
 70
     1
102
RTVSPropertyOp13
 70
     1
102
RTVSPropertyOp14
 70
     1
102
RTVSPropertyOp15
 70
     1
102
RTVSPropertyOp16
 70
     1
102
RTVSPropertyOp17
 70
     1
102
RTVSPropertyOp18
 70
     1
102
RTVSPropertyOp19
 70
     1
102
RTVSPropertyOp20
 70
     1
102
RTVSPropertyOp21
 70
     1
102
RTVSPropertyOp22
 70
     1
102
RTVSPropertyOp23
 70
     1
102
RTVSPropertyOp24
 70
     1
102
RTVSPropertyOp25
 70
     1
102
RTVSPropertyOp26
 70
     1
102
RTVSPropertyOp27
 70
     1
102
RTVSPropertyOp28
 70
     1
102
RTVSPropertyOp29
 70
     1
102
RTVSPropertyOp30
 70
     1
102
RTVSPropertyOp31
 70
     1
102
RTVSPropertyOp32
 70
     1
  0
XRECORD
  5
11189
102
{ACAD_REACTORS
330
11188
102
}
330
11188
100
AcDbXrecord
280
     1
102
RTVSPropertyOp0
 70
     1
102
RTVSPropertyOp1
 70
     1
102
RTVSPropertyOp2
 70
     1
102
RTVSPropertyOp3
 70
     1
102
RTVSPropertyOp4
 70
     1
102
RTVSPropertyOp5
 70
     1
102
RTVSPropertyOp6
 70
     1
102
RTVSPropertyOp7
 70
     1
102
RTVSPropertyOp8
 70
     1
102
RTVSPropertyOp9
 70
     1
102
RTVSPropertyOp10
 70
     1
102
RTVSPropertyOp11
 70
     1
102
RTVSPropertyOp12
 70
     1
102
RTVSPropertyOp13
 70
     1
102
RTVSPropertyOp14
 70
     1
102
RTVSPropertyOp15
 70
     1
102
RTVSPropertyOp16
 70
     1
102
RTVSPropertyOp17
 70
     1
102
RTVSPropertyOp18
 70
     1
102
RTVSPropertyOp19
 70
     1
102
RTVSPropertyOp20
 70
     1
102
RTVSPropertyOp21
 70
     1
102
RTVSPropertyOp22
 70
     1
102
RTVSPropertyOp23
 70
     1
102
RTVSPropertyOp24
 70
     1
102
RTVSPropertyOp25
 70
     1
102
RTVSPropertyOp26
 70
     1
102
RTVSPropertyOp27
 70
     1
102
RTVSPropertyOp28
 70
     1
102
RTVSPropertyOp29
 70
     1
102
RTVSPropertyOp30
 70
     1
102
RTVSPropertyOp31
 70
     1
102
RTVSPropertyOp32
 70
     1
  0
XRECORD
  5
11197
102
{ACAD_REACTORS
330
11196
102
}
330
11196
100
AcDbXrecord
280
     1
102
RTVSPropertyOp0
 70
     1
102
RTVSPropertyOp1
 70
     1
102
RTVSPropertyOp2
 70
     1
102
RTVSPropertyOp3
 70
     1
102
RTVSPropertyOp4
 70
     1
102
RTVSPropertyOp5
 70
     1
102
RTVSPropertyOp6
 70
     1
102
RTVSPropertyOp7
 70
     1
102
RTVSPropertyOp8
 70
     1
102
RTVSPropertyOp9
 70
     1
102
RTVSPropertyOp10
 70
     1
102
RTVSPropertyOp11
 70
     1
102
RTVSPropertyOp12
 70
     1
102
RTVSPropertyOp13
 70
     1
102
RTVSPropertyOp14
 70
     1
102
RTVSPropertyOp15
 70
     1
102
RTVSPropertyOp16
 70
     1
102
RTVSPropertyOp17
 70
     1
102
RTVSPropertyOp18
 70
     1
102
RTVSPropertyOp19
 70
     1
102
RTVSPropertyOp20
 70
     1
102
RTVSPropertyOp21
 70
     1
102
RTVSPropertyOp22
 70
     1
102
RTVSPropertyOp23
 70
     1
102
RTVSPropertyOp24
 70
     1
102
RTVSPropertyOp25
 70
     1
102
RTVSPropertyOp26
 70
     1
102
RTVSPropertyOp27
 70
     1
102
RTVSPropertyOp28
 70
     1
102
RTVSPropertyOp29
 70
     1
102
RTVSPropertyOp30
 70
     1
102
RTVSPropertyOp31
 70
     1
102
RTVSPropertyOp32
 70
     1
  0
XRECORD
  5
1119F
102
{ACAD_REACTORS
330
1119E
102
}
330
1119E
100
AcDbXrecord
280
     1
102
RTVSPropertyOp0
 70
     1
102
RTVSPropertyOp1
 70
     1
102
RTVSPropertyOp2
 70
     1
102
RTVSPropertyOp3
 70
     1
102
RTVSPropertyOp4
 70
     1
102
RTVSPropertyOp5
 70
     1
102
RTVSPropertyOp6
 70
     1
102
RTVSPropertyOp7
 70
     1
102
RTVSPropertyOp8
 70
     1
102
RTVSPropertyOp9
 70
     1
102
RTVSPropertyOp10
 70
     1
102
RTVSPropertyOp11
 70
     1
102
RTVSPropertyOp12
 70
     1
102
RTVSPropertyOp13
 70
     1
102
RTVSPropertyOp14
 70
     1
102
RTVSPropertyOp15
 70
     1
102
RTVSPropertyOp16
 70
     1
102
RTVSPropertyOp17
 70
     1
102
RTVSPropertyOp18
 70
     1
102
RTVSPropertyOp19
 70
     1
102
RTVSPropertyOp20
 70
     1
102
RTVSPropertyOp21
 70
     1
102
RTVSPropertyOp22
 70
     1
102
RTVSPropertyOp23
 70
     1
102
RTVSPropertyOp24
 70
     1
102
RTVSPropertyOp25
 70
     1
102
RTVSPropertyOp26
 70
     1
102
RTVSPropertyOp27
 70
     1
102
RTVSPropertyOp28
 70
     1
102
RTVSPropertyOp29
 70
     1
102
RTVSPropertyOp30
 70
     1
102
RTVSPropertyOp31
 70
     1
102
RTVSPropertyOp32
 70
     1
  0
XRECORD
  5
11191
102
{ACAD_REACTORS
330
11190
102
}
330
11190
100
AcDbXrecord
280
     1
102
RTVSPropertyOp0
 70
     1
102
RTVSPropertyOp1
 70
     1
102
RTVSPropertyOp2
 70
     1
102
RTVSPropertyOp3
 70
     1
102
RTVSPropertyOp4
 70
     1
102
RTVSPropertyOp5
 70
     1
102
RTVSPropertyOp6
 70
     1
102
RTVSPropertyOp7
 70
     1
102
RTVSPropertyOp8
 70
     1
102
RTVSPropertyOp9
 70
     1
102
RTVSPropertyOp10
 70
     1
102
RTVSPropertyOp11
 70
     1
102
RTVSPropertyOp12
 70
     1
102
RTVSPropertyOp13
 70
     1
102
RTVSPropertyOp14
 70
     1
102
RTVSPropertyOp15
 70
     1
102
RTVSPropertyOp16
 70
     1
102
RTVSPropertyOp17
 70
     1
102
RTVSPropertyOp18
 70
     1
102
RTVSPropertyOp19
 70
     1
102
RTVSPropertyOp20
 70
     1
102
RTVSPropertyOp21
 70
     1
102
RTVSPropertyOp22
 70
     1
102
RTVSPropertyOp23
 70
     1
102
RTVSPropertyOp24
 70
     1
102
RTVSPropertyOp25
 70
     1
102
RTVSPropertyOp26
 70
     1
102
RTVSPropertyOp27
 70
     1
102
RTVSPropertyOp28
 70
     1
102
RTVSPropertyOp29
 70
     1
102
RTVSPropertyOp30
 70
     1
102
RTVSPropertyOp31
 70
     1
102
RTVSPropertyOp32
 70
     1
  0
XRECORD
  5
11195
102
{ACAD_REACTORS
330
11194
102
}
330
11194
100
AcDbXrecord
280
     1
102
RTVSPropertyOp0
 70
     1
102
RTVSPropertyOp1
 70
     1
102
RTVSPropertyOp2
 70
     1
102
RTVSPropertyOp3
 70
     1
102
RTVSPropertyOp4
 70
     1
102
RTVSPropertyOp5
 70
     1
102
RTVSPropertyOp6
 70
     1
102
RTVSPropertyOp7
 70
     1
102
RTVSPropertyOp8
 70
     1
102
RTVSPropertyOp9
 70
     1
102
RTVSPropertyOp10
 70
     1
102
RTVSPropertyOp11
 70
     1
102
RTVSPropertyOp12
 70
     1
102
RTVSPropertyOp13
 70
     1
102
RTVSPropertyOp14
 70
     1
102
RTVSPropertyOp15
 70
     1
102
RTVSPropertyOp16
 70
     1
102
RTVSPropertyOp17
 70
     1
102
RTVSPropertyOp18
 70
     1
102
RTVSPropertyOp19
 70
     1
102
RTVSPropertyOp20
 70
     1
102
RTVSPropertyOp21
 70
     1
102
RTVSPropertyOp22
 70
     1
102
RTVSPropertyOp23
 70
     1
102
RTVSPropertyOp24
 70
     1
102
RTVSPropertyOp25
 70
     1
102
RTVSPropertyOp26
 70
     1
102
RTVSPropertyOp27
 70
     1
102
RTVSPropertyOp28
 70
     1
102
RTVSPropertyOp29
 70
     1
102
RTVSPropertyOp30
 70
     1
102
RTVSPropertyOp31
 70
     1
102
RTVSPropertyOp32
 70
     1
  0
XRECORD
  5
111B4
102
{ACAD_REACTORS
330
111B3
102
}
330
111B3
100
AcDbXrecord
280
     1
102
RTVSPropertyOp0
 70
     0
102
RTVSPropertyOp1
 70
     0
102
RTVSPropertyOp2
 70
     0
102
RTVSPropertyOp3
 70
     0
102
RTVSPropertyOp4
 70
     0
102
RTVSPropertyOp5
 70
     0
102
RTVSPropertyOp6
 70
     0
102
RTVSPropertyOp7
 70
     0
102
RTVSPropertyOp8
 70
     0
102
RTVSPropertyOp9
 70
     0
102
RTVSPropertyOp10
 70
     0
102
RTVSPropertyOp11
 70
     0
102
RTVSPropertyOp12
 70
     0
102
RTVSPropertyOp13
 70
     0
102
RTVSPropertyOp14
 70
     2
102
RTVSPropertyOp15
 70
     0
102
RTVSPropertyOp16
 70
     0
102
RTVSPropertyOp17
 70
     0
102
RTVSPropertyOp18
 70
     0
102
RTVSPropertyOp19
 70
     0
102
RTVSPropertyOp20
 70
     0
102
RTVSPropertyOp21
 70
     0
102
RTVSPropertyOp22
 70
     0
102
RTVSPropertyOp23
 70
     0
102
RTVSPropertyOp24
 70
     0
102
RTVSPropertyOp25
 70
     0
102
RTVSPropertyOp26
 70
     0
102
RTVSPropertyOp27
 70
     0
102
RTVSPropertyOp28
 70
     1
102
RTVSPropertyOp29
 70
     1
102
RTVSPropertyOp30
 70
     1
102
RTVSPropertyOp31
 70
     1
102
RTVSPropertyOp32
 70
     1
  0
XRECORD
  5
1119D
102
{ACAD_REACTORS
330
1119C
102
}
330
1119C
100
AcDbXrecord
280
     1
102
RTVSPropertyOp0
 70
     1
102
RTVSPropertyOp1
 70
     1
102
RTVSPropertyOp2
 70
     1
102
RTVSPropertyOp3
 70
     1
102
RTVSPropertyOp4
 70
     1
102
RTVSPropertyOp5
 70
     1
102
RTVSPropertyOp6
 70
     1
102
RTVSPropertyOp7
 70
     1
102
RTVSPropertyOp8
 70
     1
102
RTVSPropertyOp9
 70
     1
102
RTVSPropertyOp10
 70
     1
102
RTVSPropertyOp11
 70
     1
102
RTVSPropertyOp12
 70
     1
102
RTVSPropertyOp13
 70
     1
102
RTVSPropertyOp14
 70
     1
102
RTVSPropertyOp15
 70
     1
102
RTVSPropertyOp16
 70
     1
102
RTVSPropertyOp17
 70
     1
102
RTVSPropertyOp18
 70
     1
102
RTVSPropertyOp19
 70
     1
102
RTVSPropertyOp20
 70
     1
102
RTVSPropertyOp21
 70
     1
102
RTVSPropertyOp22
 70
     1
102
RTVSPropertyOp23
 70
     1
102
RTVSPropertyOp24
 70
     1
102
RTVSPropertyOp25
 70
     1
102
RTVSPropertyOp26
 70
     1
102
RTVSPropertyOp27
 70
     1
102
RTVSPropertyOp28
 70
     1
102
RTVSPropertyOp29
 70
     1
102
RTVSPropertyOp30
 70
     1
102
RTVSPropertyOp31
 70
     1
102
RTVSPropertyOp32
 70
     1
  0
XRECORD
  5
11181
102
{ACAD_REACTORS
330
11180
102
}
330
11180
100
AcDbXrecord
280
     1
102
RTVSPropertyOp0
 70
     1
102
RTVSPropertyOp1
 70
     1
102
RTVSPropertyOp2
 70
     1
102
RTVSPropertyOp3
 70
     1
102
RTVSPropertyOp4
 70
     1
102
RTVSPropertyOp5
 70
     1
102
RTVSPropertyOp6
 70
     1
102
RTVSPropertyOp7
 70
     1
102
RTVSPropertyOp8
 70
     1
102
RTVSPropertyOp9
 70
     1
102
RTVSPropertyOp10
 70
     1
102
RTVSPropertyOp11
 70
     1
102
RTVSPropertyOp12
 70
     1
102
RTVSPropertyOp13
 70
     1
102
RTVSPropertyOp14
 70
     1
102
RTVSPropertyOp15
 70
     1
102
RTVSPropertyOp16
 70
     1
102
RTVSPropertyOp17
 70
     1
102
RTVSPropertyOp18
 70
     1
102
RTVSPropertyOp19
 70
     1
102
RTVSPropertyOp20
 70
     1
102
RTVSPropertyOp21
 70
     1
102
RTVSPropertyOp22
 70
     1
102
RTVSPropertyOp23
 70
     1
102
RTVSPropertyOp24
 70
     1
102
RTVSPropertyOp25
 70
     1
102
RTVSPropertyOp26
 70
     1
102
RTVSPropertyOp27
 70
     1
102
RTVSPropertyOp28
 70
     1
102
RTVSPropertyOp29
 70
     1
102
RTVSPropertyOp30
 70
     1
102
RTVSPropertyOp31
 70
     1
102
RTVSPropertyOp32
 70
     1
  0
XRECORD
  5
11183
102
{ACAD_REACTORS
330
11182
102
}
330
11182
100
AcDbXrecord
280
     1
102
RTVSPropertyOp0
 70
     1
102
RTVSPropertyOp1
 70
     1
102
RTVSPropertyOp2
 70
     1
102
RTVSPropertyOp3
 70
     1
102
RTVSPropertyOp4
 70
     1
102
RTVSPropertyOp5
 70
     1
102
RTVSPropertyOp6
 70
     1
102
RTVSPropertyOp7
 70
     1
102
RTVSPropertyOp8
 70
     1
102
RTVSPropertyOp9
 70
     1
102
RTVSPropertyOp10
 70
     1
102
RTVSPropertyOp11
 70
     1
102
RTVSPropertyOp12
 70
     1
102
RTVSPropertyOp13
 70
     1
102
RTVSPropertyOp14
 70
     1
102
RTVSPropertyOp15
 70
     1
102
RTVSPropertyOp16
 70
     1
102
RTVSPropertyOp17
 70
     1
102
RTVSPropertyOp18
 70
     1
102
RTVSPropertyOp19
 70
     1
102
RTVSPropertyOp20
 70
     1
102
RTVSPropertyOp21
 70
     1
102
RTVSPropertyOp22
 70
     1
102
RTVSPropertyOp23
 70
     1
102
RTVSPropertyOp24
 70
     1
102
RTVSPropertyOp25
 70
     1
102
RTVSPropertyOp26
 70
     1
102
RTVSPropertyOp27
 70
     1
102
RTVSPropertyOp28
 70
     1
102
RTVSPropertyOp29
 70
     1
102
RTVSPropertyOp30
 70
     1
102
RTVSPropertyOp31
 70
     1
102
RTVSPropertyOp32
 70
     1
  0
XRECORD
  5
11185
102
{ACAD_REACTORS
330
11184
102
}
330
11184
100
AcDbXrecord
280
     1
102
RTVSPropertyOp0
 70
     1
102
RTVSPropertyOp1
 70
     1
102
RTVSPropertyOp2
 70
     1
102
RTVSPropertyOp3
 70
     1
102
RTVSPropertyOp4
 70
     1
102
RTVSPropertyOp5
 70
     1
102
RTVSPropertyOp6
 70
     1
102
RTVSPropertyOp7
 70
     1
102
RTVSPropertyOp8
 70
     1
102
RTVSPropertyOp9
 70
     1
102
RTVSPropertyOp10
 70
     1
102
RTVSPropertyOp11
 70
     1
102
RTVSPropertyOp12
 70
     1
102
RTVSPropertyOp13
 70
     1
102
RTVSPropertyOp14
 70
     1
102
RTVSPropertyOp15
 70
     1
102
RTVSPropertyOp16
 70
     1
102
RTVSPropertyOp17
 70
     1
102
RTVSPropertyOp18
 70
     1
102
RTVSPropertyOp19
 70
     1
102
RTVSPropertyOp20
 70
     1
102
RTVSPropertyOp21
 70
     1
102
RTVSPropertyOp22
 70
     1
102
RTVSPropertyOp23
 70
     1
102
RTVSPropertyOp24
 70
     1
102
RTVSPropertyOp25
 70
     1
102
RTVSPropertyOp26
 70
     1
102
RTVSPropertyOp27
 70
     1
102
RTVSPropertyOp28
 70
     1
102
RTVSPropertyOp29
 70
     1
102
RTVSPropertyOp30
 70
     1
102
RTVSPropertyOp31
 70
     1
102
RTVSPropertyOp32
 70
     1
  0
XRECORD
  5
11187
102
{ACAD_REACTORS
330
11186
102
}
330
11186
100
AcDbXrecord
280
     1
102
RTVSPropertyOp0
 70
     1
102
RTVSPropertyOp1
 70
     1
102
RTVSPropertyOp2
 70
     1
102
RTVSPropertyOp3
 70
     1
102
RTVSPropertyOp4
 70
     1
102
RTVSPropertyOp5
 70
     1
102
RTVSPropertyOp6
 70
     1
102
RTVSPropertyOp7
 70
     1
102
RTVSPropertyOp8
 70
     1
102
RTVSPropertyOp9
 70
     1
102
RTVSPropertyOp10
 70
     1
102
RTVSPropertyOp11
 70
     1
102
RTVSPropertyOp12
 70
     1
102
RTVSPropertyOp13
 70
     1
102
RTVSPropertyOp14
 70
     1
102
RTVSPropertyOp15
 70
     1
102
RTVSPropertyOp16
 70
     1
102
RTVSPropertyOp17
 70
     1
102
RTVSPropertyOp18
 70
     1
102
RTVSPropertyOp19
 70
     1
102
RTVSPropertyOp20
 70
     1
102
RTVSPropertyOp21
 70
     1
102
RTVSPropertyOp22
 70
     1
102
RTVSPropertyOp23
 70
     1
102
RTVSPropertyOp24
 70
     1
102
RTVSPropertyOp25
 70
     1
102
RTVSPropertyOp26
 70
     1
102
RTVSPropertyOp27
 70
     1
102
RTVSPropertyOp28
 70
     1
102
RTVSPropertyOp29
 70
     1
102
RTVSPropertyOp30
 70
     1
102
RTVSPropertyOp31
 70
     1
102
RTVSPropertyOp32
 70
     1
  0
XRECORD
  5
111A4
102
{ACAD_REACTORS
330
111A3
102
}
330
111A3
100
AcDbXrecord
280
     1
102
RTVSPropertyOp0
 70
     1
102
RTVSPropertyOp1
 70
     1
102
RTVSPropertyOp2
 70
     1
102
RTVSPropertyOp3
 70
     1
102
RTVSPropertyOp4
 70
     1
102
RTVSPropertyOp5
 70
     1
102
RTVSPropertyOp6
 70
     1
102
RTVSPropertyOp7
 70
     1
102
RTVSPropertyOp8
 70
     1
102
RTVSPropertyOp9
 70
     1
102
RTVSPropertyOp10
 70
     1
102
RTVSPropertyOp11
 70
     1
102
RTVSPropertyOp12
 70
     1
102
RTVSPropertyOp13
 70
     1
102
RTVSPropertyOp14
 70
     1
102
RTVSPropertyOp15
 70
     1
102
RTVSPropertyOp16
 70
     1
102
RTVSPropertyOp17
 70
     1
102
RTVSPropertyOp18
 70
     1
102
RTVSPropertyOp19
 70
     1
102
RTVSPropertyOp20
 70
     1
102
RTVSPropertyOp21
 70
     1
102
RTVSPropertyOp22
 70
     1
102
RTVSPropertyOp23
 70
     1
102
RTVSPropertyOp24
 70
     1
102
RTVSPropertyOp25
 70
     1
102
RTVSPropertyOp26
 70
     1
102
RTVSPropertyOp27
 70
     1
102
RTVSPropertyOp28
 70
     1
102
RTVSPropertyOp29
 70
     1
102
RTVSPropertyOp30
 70
     1
102
RTVSPropertyOp31
 70
     1
102
RTVSPropertyOp32
 70
     1
  0
XRECORD
  5
111B0
102
{ACAD_REACTORS
330
111AF
102
}
330
111AF
100
AcDbXrecord
280
     1
102
RTVSPropertyOp0
 70
     0
102
RTVSPropertyOp1
 70
     0
102
RTVSPropertyOp2
 70
     0
102
RTVSPropertyOp3
 70
     0
102
RTVSPropertyOp4
 70
     0
102
RTVSPropertyOp5
 70
     0
102
RTVSPropertyOp6
 70
     0
102
RTVSPropertyOp7
 70
     0
102
RTVSPropertyOp8
 70
     0
102
RTVSPropertyOp9
 70
     0
102
RTVSPropertyOp10
 70
     0
102
RTVSPropertyOp11
 70
     0
102
RTVSPropertyOp12
 70
     0
102
RTVSPropertyOp13
 70
     0
102
RTVSPropertyOp14
 70
     2
102
RTVSPropertyOp15
 70
     0
102
RTVSPropertyOp16
 70
     0
102
RTVSPropertyOp17
 70
     0
102
RTVSPropertyOp18
 70
     0
102
RTVSPropertyOp19
 70
     0
102
RTVSPropertyOp20
 70
     0
102
RTVSPropertyOp21
 70
     0
102
RTVSPropertyOp22
 70
     0
102
RTVSPropertyOp23
 70
     0
102
RTVSPropertyOp24
 70
     0
102
RTVSPropertyOp25
 70
     0
102
RTVSPropertyOp26
 70
     0
102
RTVSPropertyOp27
 70
     0
102
RTVSPropertyOp28
 70
     1
102
RTVSPropertyOp29
 70
     1
102
RTVSPropertyOp30
 70
     1
102
RTVSPropertyOp31
 70
     1
102
RTVSPropertyOp32
 70
     1
  0
XRECORD
  5
1119B
102
{ACAD_REACTORS
330
1119A
102
}
330
1119A
100
AcDbXrecord
280
     1
102
RTVSPropertyOp0
 70
     1
102
RTVSPropertyOp1
 70
     1
102
RTVSPropertyOp2
 70
     1
102
RTVSPropertyOp3
 70
     1
102
RTVSPropertyOp4
 70
     1
102
RTVSPropertyOp5
 70
     1
102
RTVSPropertyOp6
 70
     1
102
RTVSPropertyOp7
 70
     1
102
RTVSPropertyOp8
 70
     1
102
RTVSPropertyOp9
 70
     1
102
RTVSPropertyOp10
 70
     1
102
RTVSPropertyOp11
 70
     1
102
RTVSPropertyOp12
 70
     1
102
RTVSPropertyOp13
 70
     1
102
RTVSPropertyOp14
 70
     1
102
RTVSPropertyOp15
 70
     1
102
RTVSPropertyOp16
 70
     1
102
RTVSPropertyOp17
 70
     1
102
RTVSPropertyOp18
 70
     1
102
RTVSPropertyOp19
 70
     1
102
RTVSPropertyOp20
 70
     1
102
RTVSPropertyOp21
 70
     1
102
RTVSPropertyOp22
 70
     1
102
RTVSPropertyOp23
 70
     1
102
RTVSPropertyOp24
 70
     1
102
RTVSPropertyOp25
 70
     1
102
RTVSPropertyOp26
 70
     1
102
RTVSPropertyOp27
 70
     1
102
RTVSPropertyOp28
 70
     1
102
RTVSPropertyOp29
 70
     1
102
RTVSPropertyOp30
 70
     1
102
RTVSPropertyOp31
 70
     1
102
RTVSPropertyOp32
 70
     1
  0
XRECORD
  5
111B2
102
{ACAD_REACTORS
330
111B1
102
}
330
111B1
100
AcDbXrecord
280
     1
102
RTVSPropertyOp0
 70
     0
102
RTVSPropertyOp1
 70
     0
102
RTVSPropertyOp2
 70
     0
102
RTVSPropertyOp3
 70
     0
102
RTVSPropertyOp4
 70
     0
102
RTVSPropertyOp5
 70
     0
102
RTVSPropertyOp6
 70
     0
102
RTVSPropertyOp7
 70
     0
102
RTVSPropertyOp8
 70
     0
102
RTVSPropertyOp9
 70
     0
102
RTVSPropertyOp10
 70
     0
102
RTVSPropertyOp11
 70
     0
102
RTVSPropertyOp12
 70
     0
102
RTVSPropertyOp13
 70
     0
102
RTVSPropertyOp14
 70
     2
102
RTVSPropertyOp15
 70
     0
102
RTVSPropertyOp16
 70
     0
102
RTVSPropertyOp17
 70
     0
102
RTVSPropertyOp18
 70
     0
102
RTVSPropertyOp19
 70
     0
102
RTVSPropertyOp20
 70
     0
102
RTVSPropertyOp21
 70
     0
102
RTVSPropertyOp22
 70
     0
102
RTVSPropertyOp23
 70
     0
102
RTVSPropertyOp24
 70
     0
102
RTVSPropertyOp25
 70
     0
102
RTVSPropertyOp26
 70
     0
102
RTVSPropertyOp27
 70
     0
102
RTVSPropertyOp28
 70
     1
102
RTVSPropertyOp29
 70
     1
102
RTVSPropertyOp30
 70
     1
102
RTVSPropertyOp31
 70
     1
102
RTVSPropertyOp32
 70
     1
  0
XRECORD
  5
11193
102
{ACAD_REACTORS
330
11192
102
}
330
11192
100
AcDbXrecord
280
     1
102
RTVSPropertyOp0
 70
     1
102
RTVSPropertyOp1
 70
     1
102
RTVSPropertyOp2
 70
     1
102
RTVSPropertyOp3
 70
     1
102
RTVSPropertyOp4
 70
     1
102
RTVSPropertyOp5
 70
     1
102
RTVSPropertyOp6
 70
     1
102
RTVSPropertyOp7
 70
     1
102
RTVSPropertyOp8
 70
     1
102
RTVSPropertyOp9
 70
     1
102
RTVSPropertyOp10
 70
     1
102
RTVSPropertyOp11
 70
     1
102
RTVSPropertyOp12
 70
     1
102
RTVSPropertyOp13
 70
     1
102
RTVSPropertyOp14
 70
     1
102
RTVSPropertyOp15
 70
     1
102
RTVSPropertyOp16
 70
     1
102
RTVSPropertyOp17
 70
     1
102
RTVSPropertyOp18
 70
     1
102
RTVSPropertyOp19
 70
     1
102
RTVSPropertyOp20
 70
     1
102
RTVSPropertyOp21
 70
     1
102
RTVSPropertyOp22
 70
     1
102
RTVSPropertyOp23
 70
     1
102
RTVSPropertyOp24
 70
     1
102
RTVSPropertyOp25
 70
     1
102
RTVSPropertyOp26
 70
     1
102
RTVSPropertyOp27
 70
     1
102
RTVSPropertyOp28
 70
     1
102
RTVSPropertyOp29
 70
     1
102
RTVSPropertyOp30
 70
     1
102
RTVSPropertyOp31
 70
     1
102
RTVSPropertyOp32
 70
     1
  0
XRECORD
  5
111AE
102
{ACAD_REACTORS
330
111AD
102
}
330
111AD
100
AcDbXrecord
280
     1
102
RTVSPropertyOp0
 70
     1
102
RTVSPropertyOp1
 70
     1
102
RTVSPropertyOp2
 70
     1
102
RTVSPropertyOp3
 70
     1
102
RTVSPropertyOp4
 70
     1
102
RTVSPropertyOp5
 70
     1
102
RTVSPropertyOp6
 70
     1
102
RTVSPropertyOp7
 70
     1
102
RTVSPropertyOp8
 70
     1
102
RTVSPropertyOp9
 70
     1
102
RTVSPropertyOp10
 70
     1
102
RTVSPropertyOp11
 70
     1
102
RTVSPropertyOp12
 70
     1
102
RTVSPropertyOp13
 70
     1
102
RTVSPropertyOp14
 70
     1
102
RTVSPropertyOp15
 70
     1
102
RTVSPropertyOp16
 70
     1
102
RTVSPropertyOp17
 70
     1
102
RTVSPropertyOp18
 70
     1
102
RTVSPropertyOp19
 70
     1
102
RTVSPropertyOp20
 70
     1
102
RTVSPropertyOp21
 70
     1
102
RTVSPropertyOp22
 70
     1
102
RTVSPropertyOp23
 70
     1
102
RTVSPropertyOp24
 70
     1
102
RTVSPropertyOp25
 70
     1
102
RTVSPropertyOp26
 70
     1
102
RTVSPropertyOp27
 70
     1
102
RTVSPropertyOp28
 70
     1
102
RTVSPropertyOp29
 70
     1
102
RTVSPropertyOp30
 70
     1
102
RTVSPropertyOp31
 70
     1
102
RTVSPropertyOp32
 70
     1
  0
XRECORD
  5
111AC
102
{ACAD_REACTORS
330
111AB
102
}
330
111AB
100
AcDbXrecord
280
     1
102
RTVSPropertyOp0
 70
     1
102
RTVSPropertyOp1
 70
     1
102
RTVSPropertyOp2
 70
     1
102
RTVSPropertyOp3
 70
     1
102
RTVSPropertyOp4
 70
     1
102
RTVSPropertyOp5
 70
     1
102
RTVSPropertyOp6
 70
     1
102
RTVSPropertyOp7
 70
     1
102
RTVSPropertyOp8
 70
     1
102
RTVSPropertyOp9
 70
     1
102
RTVSPropertyOp10
 70
     1
102
RTVSPropertyOp11
 70
     1
102
RTVSPropertyOp12
 70
     1
102
RTVSPropertyOp13
 70
     1
102
RTVSPropertyOp14
 70
     1
102
RTVSPropertyOp15
 70
     1
102
RTVSPropertyOp16
 70
     1
102
RTVSPropertyOp17
 70
     1
102
RTVSPropertyOp18
 70
     1
102
RTVSPropertyOp19
 70
     1
102
RTVSPropertyOp20
 70
     1
102
RTVSPropertyOp21
 70
     1
102
RTVSPropertyOp22
 70
     1
102
RTVSPropertyOp23
 70
     1
102
RTVSPropertyOp24
 70
     1
102
RTVSPropertyOp25
 70
     1
102
RTVSPropertyOp26
 70
     1
102
RTVSPropertyOp27
 70
     1
102
RTVSPropertyOp28
 70
     1
102
RTVSPropertyOp29
 70
     1
102
RTVSPropertyOp30
 70
     1
102
RTVSPropertyOp31
 70
     1
102
RTVSPropertyOp32
 70
     1
  0
XRECORD
  5
111A6
102
{ACAD_REACTORS
330
111A5
102
}
330
111A5
100
AcDbXrecord
280
     1
102
RTVSPropertyOp0
 70
     1
102
RTVSPropertyOp1
 70
     1
102
RTVSPropertyOp2
 70
     1
102
RTVSPropertyOp3
 70
     1
102
RTVSPropertyOp4
 70
     1
102
RTVSPropertyOp5
 70
     1
102
RTVSPropertyOp6
 70
     1
102
RTVSPropertyOp7
 70
     1
102
RTVSPropertyOp8
 70
     1
102
RTVSPropertyOp9
 70
     1
102
RTVSPropertyOp10
 70
     1
102
RTVSPropertyOp11
 70
     1
102
RTVSPropertyOp12
 70
     1
102
RTVSPropertyOp13
 70
     1
102
RTVSPropertyOp14
 70
     1
102
RTVSPropertyOp15
 70
     1
102
RTVSPropertyOp16
 70
     1
102
RTVSPropertyOp17
 70
     1
102
RTVSPropertyOp18
 70
     1
102
RTVSPropertyOp19
 70
     1
102
RTVSPropertyOp20
 70
     1
102
RTVSPropertyOp21
 70
     1
102
RTVSPropertyOp22
 70
     1
102
RTVSPropertyOp23
 70
     1
102
RTVSPropertyOp24
 70
     1
102
RTVSPropertyOp25
 70
     1
102
RTVSPropertyOp26
 70
     1
102
RTVSPropertyOp27
 70
     1
102
RTVSPropertyOp28
 70
     1
102
RTVSPropertyOp29
 70
     1
102
RTVSPropertyOp30
 70
     1
102
RTVSPropertyOp31
 70
     1
102
RTVSPropertyOp32
 70
     1
  0
XRECORD
  5
111A8
102
{ACAD_REACTORS
330
111A7
102
}
330
111A7
100
AcDbXrecord
280
     1
102
RTVSPropertyOp0
 70
     1
102
RTVSPropertyOp1
 70
     1
102
RTVSPropertyOp2
 70
     1
102
RTVSPropertyOp3
 70
     1
102
RTVSPropertyOp4
 70
     1
102
RTVSPropertyOp5
 70
     1
102
RTVSPropertyOp6
 70
     1
102
RTVSPropertyOp7
 70
     1
102
RTVSPropertyOp8
 70
     1
102
RTVSPropertyOp9
 70
     1
102
RTVSPropertyOp10
 70
     1
102
RTVSPropertyOp11
 70
     1
102
RTVSPropertyOp12
 70
     1
102
RTVSPropertyOp13
 70
     1
102
RTVSPropertyOp14
 70
     1
102
RTVSPropertyOp15
 70
     1
102
RTVSPropertyOp16
 70
     1
102
RTVSPropertyOp17
 70
     1
102
RTVSPropertyOp18
 70
     1
102
RTVSPropertyOp19
 70
     1
102
RTVSPropertyOp20
 70
     1
102
RTVSPropertyOp21
 70
     1
102
RTVSPropertyOp22
 70
     1
102
RTVSPropertyOp23
 70
     1
102
RTVSPropertyOp24
 70
     1
102
RTVSPropertyOp25
 70
     1
102
RTVSPropertyOp26
 70
     1
102
RTVSPropertyOp27
 70
     1
102
RTVSPropertyOp28
 70
     1
102
RTVSPropertyOp29
 70
     1
102
RTVSPropertyOp30
 70
     1
102
RTVSPropertyOp31
 70
     1
102
RTVSPropertyOp32
 70
     1
  0
XRECORD
  5
11199
102
{ACAD_REACTORS
330
11198
102
}
330
11198
100
AcDbXrecord
280
     1
102
RTVSPropertyOp0
 70
     1
102
RTVSPropertyOp1
 70
     1
102
RTVSPropertyOp2
 70
     1
102
RTVSPropertyOp3
 70
     1
102
RTVSPropertyOp4
 70
     1
102
RTVSPropertyOp5
 70
     1
102
RTVSPropertyOp6
 70
     1
102
RTVSPropertyOp7
 70
     1
102
RTVSPropertyOp8
 70
     1
102
RTVSPropertyOp9
 70
     1
102
RTVSPropertyOp10
 70
     1
102
RTVSPropertyOp11
 70
     1
102
RTVSPropertyOp12
 70
     1
102
RTVSPropertyOp13
 70
     1
102
RTVSPropertyOp14
 70
     1
102
RTVSPropertyOp15
 70
     1
102
RTVSPropertyOp16
 70
     1
102
RTVSPropertyOp17
 70
     1
102
RTVSPropertyOp18
 70
     1
102
RTVSPropertyOp19
 70
     1
102
RTVSPropertyOp20
 70
     1
102
RTVSPropertyOp21
 70
     1
102
RTVSPropertyOp22
 70
     1
102
RTVSPropertyOp23
 70
     1
102
RTVSPropertyOp24
 70
     1
102
RTVSPropertyOp25
 70
     1
102
RTVSPropertyOp26
 70
     1
102
RTVSPropertyOp27
 70
     1
102
RTVSPropertyOp28
 70
     1
102
RTVSPropertyOp29
 70
     1
102
RTVSPropertyOp30
 70
     1
102
RTVSPropertyOp31
 70
     1
102
RTVSPropertyOp32
 70
     1
  0
XRECORD
  5
111A2
102
{ACAD_REACTORS
330
111A1
102
}
330
111A1
100
AcDbXrecord
280
     1
102
RTVSPropertyOp0
 70
     1
102
RTVSPropertyOp1
 70
     1
102
RTVSPropertyOp2
 70
     1
102
RTVSPropertyOp3
 70
     1
102
RTVSPropertyOp4
 70
     1
102
RTVSPropertyOp5
 70
     1
102
RTVSPropertyOp6
 70
     1
102
RTVSPropertyOp7
 70
     1
102
RTVSPropertyOp8
 70
     1
102
RTVSPropertyOp9
 70
     1
102
RTVSPropertyOp10
 70
     1
102
RTVSPropertyOp11
 70
     1
102
RTVSPropertyOp12
 70
     1
102
RTVSPropertyOp13
 70
     1
102
RTVSPropertyOp14
 70
     1
102
RTVSPropertyOp15
 70
     1
102
RTVSPropertyOp16
 70
     1
102
RTVSPropertyOp17
 70
     1
102
RTVSPropertyOp18
 70
     1
102
RTVSPropertyOp19
 70
     1
102
RTVSPropertyOp20
 70
     1
102
RTVSPropertyOp21
 70
     1
102
RTVSPropertyOp22
 70
     1
102
RTVSPropertyOp23
 70
     1
102
RTVSPropertyOp24
 70
     1
102
RTVSPropertyOp25
 70
     1
102
RTVSPropertyOp26
 70
     1
102
RTVSPropertyOp27
 70
     1
102
RTVSPropertyOp28
 70
     1
102
RTVSPropertyOp29
 70
     1
102
RTVSPropertyOp30
 70
     1
102
RTVSPropertyOp31
 70
     1
102
RTVSPropertyOp32
 70
     1
  0
XRECORD
  5
111AA
102
{ACAD_REACTORS
330
111A9
102
}
330
111A9
100
AcDbXrecord
280
     1
102
RTVSPropertyOp0
 70
     1
102
RTVSPropertyOp1
 70
     1
102
RTVSPropertyOp2
 70
     1
102
RTVSPropertyOp3
 70
     1
102
RTVSPropertyOp4
 70
     1
102
RTVSPropertyOp5
 70
     1
102
RTVSPropertyOp6
 70
     1
102
RTVSPropertyOp7
 70
     1
102
RTVSPropertyOp8
 70
     1
102
RTVSPropertyOp9
 70
     1
102
RTVSPropertyOp10
 70
     1
102
RTVSPropertyOp11
 70
     1
102
RTVSPropertyOp12
 70
     1
102
RTVSPropertyOp13
 70
     1
102
RTVSPropertyOp14
 70
     1
102
RTVSPropertyOp15
 70
     1
102
RTVSPropertyOp16
 70
     1
102
RTVSPropertyOp17
 70
     1
102
RTVSPropertyOp18
 70
     1
102
RTVSPropertyOp19
 70
     1
102
RTVSPropertyOp20
 70
     1
102
RTVSPropertyOp21
 70
     1
102
RTVSPropertyOp22
 70
     1
102
RTVSPropertyOp23
 70
     1
102
RTVSPropertyOp24
 70
     1
102
RTVSPropertyOp25
 70
     1
102
RTVSPropertyOp26
 70
     1
102
RTVSPropertyOp27
 70
     1
102
RTVSPropertyOp28
 70
     1
102
RTVSPropertyOp29
 70
     1
102
RTVSPropertyOp30
 70
     1
102
RTVSPropertyOp31
 70
     1
102
RTVSPropertyOp32
 70
     1
  0
ENDSEC
  0
EOF
