  0
SECTION
  2
HEADER
  9
$ACADVER
  1
AC1018
  9
$ACADMAINTVER
 70
   104
  9
$DWGCODEPAGE
  3
ANSI_1252
  9
$LASTSAVEDBY
  1
MLundby
  9
$INSBASE
 10
0.0
 20
0.0
 30
0.0
  9
$EXTMIN
 10
-2514.03915163182
 20
-1089.466008021251
 30
-0.000000000000013
  9
$EXTMAX
 10
-413.7241121786564
 20
1880.896527665392
 30
0.0000000000000023
  9
$LIMMIN
 10
0.0
 20
0.0
  9
$LIMMAX
 10
420.0
 20
297.0
  9
$ORTHOMODE
 70
     0
  9
$REGENMODE
 70
     1
  9
$FILLMODE
 70
     1
  9
$QTEXTMODE
 70
     0
  9
$MIRRTEXT
 70
     1
  9
$LTSCALE
 40
5.0
  9
$ATTMODE
 70
     1
  9
$TEXTSIZE
 40
2.5
  9
$TRACEWID
 40
1.0
  9
$TEXTSTYLE
  7
STANDARD
  9
$CLAYER
  8
LAFARGE99--S-2
  9
$CELTYPE
  6
BYLAYER
  9
$CECOLOR
 62
   256
  9
$CELTSCALE
 40
1.0
  9
$DISPSILH
 70
     0
  9
$DIMSCALE
 40
1.0
  9
$DIMASZ
 40
0.18
  9
$DIMEXO
 40
0.0625
  9
$DIMDLI
 40
0.38
  9
$DIMRND
 40
0.0
  9
$DIMDLE
 40
0.0
  9
$DIMEXE
 40
0.18
  9
$DIMTP
 40
0.0
  9
$DIMTM
 40
0.0
  9
$DIMTXT
 40
0.18
  9
$DIMCEN
 40
0.09
  9
$DIMTSZ
 40
0.0
  9
$DIMTOL
 70
     0
  9
$DIMLIM
 70
     0
  9
$DIMTIH
 70
     1
  9
$DIMTOH
 70
     1
  9
$DIMSE1
 70
     0
  9
$DIMSE2
 70
     0
  9
$DIMTAD
 70
     0
  9
$DIMZIN
 70
     0
  9
$DIMBLK
  1

  9
$DIMASO
 70
     1
  9
$DIMSHO
 70
     1
  9
$DIMPOST
  1

  9
$DIMAPOST
  1

  9
$DIMALT
 70
     0
  9
$DIMALTD
 70
     2
  9
$DIMALTF
 40
25.4
  9
$DIMLFAC
 40
1.0
  9
$DIMTOFL
 70
     0
  9
$DIMTVP
 40
0.0
  9
$DIMTIX
 70
     0
  9
$DIMSOXD
 70
     0
  9
$DIMSAH
 70
     0
  9
$DIMBLK1
  1

  9
$DIMBLK2
  1

  9
$DIMSTYLE
  2
STANDARD
  9
$DIMCLRD
 70
     0
  9
$DIMCLRE
 70
     0
  9
$DIMCLRT
 70
     0
  9
$DIMTFAC
 40
1.0
  9
$DIMGAP
 40
0.09
  9
$DIMJUST
 70
     0
  9
$DIMSD1
 70
     0
  9
$DIMSD2
 70
     0
  9
$DIMTOLJ
 70
     1
  9
$DIMTZIN
 70
     0
  9
$DIMALTZ
 70
     0
  9
$DIMALTTZ
 70
     0
  9
$DIMUPT
 70
     0
  9
$DIMDEC
 70
     4
  9
$DIMTDEC
 70
     4
  9
$DIMALTU
 70
     2
  9
$DIMALTTD
 70
     2
  9
$DIMTXSTY
  7
STANDARD
  9
$DIMAUNIT
 70
     0
  9
$DIMADEC
 70
     0
  9
$DIMALTRND
 40
0.0
  9
$DIMAZIN
 70
     0
  9
$DIMDSEP
 70
    46
  9
$DIMATFIT
 70
     3
  9
$DIMFRAC
 70
     0
  9
$DIMLDRBLK
  1

  9
$DIMLUNIT
 70
     2
  9
$DIMLWD
 70
    -2
  9
$DIMLWE
 70
    -2
  9
$DIMTMOVE
 70
     0
  9
$LUNITS
 70
     2
  9
$LUPREC
 70
     4
  9
$SKETCHINC
 40
1.0
  9
$FILLETRAD
 40
0.0
  9
$AUNITS
 70
     0
  9
$AUPREC
 70
     0
  9
$MENU
  1
.
  9
$ELEVATION
 40
0.0
  9
$PELEVATION
 40
0.0
  9
$THICKNESS
 40
0.0
  9
$LIMCHECK
 70
     0
  9
$CHAMFERA
 40
10.0
  9
$CHAMFERB
 40
10.0
  9
$CHAMFERC
 40
20.0
  9
$CHAMFERD
 40
0.0
  9
$SKPOLY
 70
     0
  9
$TDCREATE
 40
2453234.618597465
  9
$TDUCREATE
 40
2453234.535264132
  9
$TDUPDATE
 40
2456078.590174584
  9
$TDUUPDATE
 40
2456078.506841250
  9
$TDINDWG
 40
4.3378162616
  9
$TDUSRTIMER
 40
4.3378160764
  9
$USRTIMER
 70
     1
  9
$ANGBASE
 50
0.0
  9
$ANGDIR
 70
     0
  9
$PDMODE
 70
     0
  9
$PDSIZE
 40
0.0
  9
$PLINEWID
 40
0.0
  9
$SPLFRAME
 70
     0
  9
$SPLINETYPE
 70
     6
  9
$SPLINESEGS
 70
     8
  9
$HANDSEED
  5
FF1C
  9
$SURFTAB1
 70
     6
  9
$SURFTAB2
 70
     6
  9
$SURFTYPE
 70
     6
  9
$SURFU
 70
     6
  9
$SURFV
 70
     6
  9
$UCSBASE
  2

  9
$UCSNAME
  2

  9
$UCSORG
 10
0.0
 20
0.0
 30
0.0
  9
$UCSXDIR
 10
1.0
 20
0.0
 30
0.0
  9
$UCSYDIR
 10
0.0
 20
1.0
 30
0.0
  9
$UCSORTHOREF
  2

  9
$UCSORTHOVIEW
 70
     0
  9
$UCSORGTOP
 10
0.0
 20
0.0
 30
0.0
  9
$UCSORGBOTTOM
 10
0.0
 20
0.0
 30
0.0
  9
$UCSORGLEFT
 10
0.0
 20
0.0
 30
0.0
  9
$UCSORGRIGHT
 10
0.0
 20
0.0
 30
0.0
  9
$UCSORGFRONT
 10
0.0
 20
0.0
 30
0.0
  9
$UCSORGBACK
 10
0.0
 20
0.0
 30
0.0
  9
$PUCSBASE
  2

  9
$PUCSNAME
  2

  9
$PUCSORG
 10
0.0
 20
0.0
 30
0.0
  9
$PUCSXDIR
 10
1.0
 20
0.0
 30
0.0
  9
$PUCSYDIR
 10
0.0
 20
1.0
 30
0.0
  9
$PUCSORTHOREF
  2

  9
$PUCSORTHOVIEW
 70
     0
  9
$PUCSORGTOP
 10
0.0
 20
0.0
 30
0.0
  9
$PUCSORGBOTTOM
 10
0.0
 20
0.0
 30
0.0
  9
$PUCSORGLEFT
 10
0.0
 20
0.0
 30
0.0
  9
$PUCSORGRIGHT
 10
0.0
 20
0.0
 30
0.0
  9
$PUCSORGFRONT
 10
0.0
 20
0.0
 30
0.0
  9
$PUCSORGBACK
 10
0.0
 20
0.0
 30
0.0
  9
$USERI1
 70
     0
  9
$USERI2
 70
     0
  9
$USERI3
 70
     0
  9
$USERI4
 70
     0
  9
$USERI5
 70
     0
  9
$USERR1
 40
0.0
  9
$USERR2
 40
0.0
  9
$USERR3
 40
0.0
  9
$USERR4
 40
0.0
  9
$USERR5
 40
0.0
  9
$WORLDVIEW
 70
     1
  9
$SHADEDGE
 70
     3
  9
$SHADEDIF
 70
    70
  9
$TILEMODE
 70
     1
  9
$MAXACTVP
 70
    48
  9
$PINSBASE
 10
0.0
 20
0.0
 30
0.0
  9
$PLIMCHECK
 70
     0
  9
$PEXTMIN
 10
0.0
 20
0.0
 30
0.0
  9
$PEXTMAX
 10
0.0
 20
0.0
 30
0.0
  9
$PLIMMIN
 10
0.0
 20
0.0
  9
$PLIMMAX
 10
12.0
 20
9.0
  9
$UNITMODE
 70
     0
  9
$VISRETAIN
 70
     1
  9
$PLINEGEN
 70
     0
  9
$PSLTSCALE
 70
     1
  9
$TREEDEPTH
 70
  3020
  9
$CMLSTYLE
  2
STANDARD
  9
$CMLJUST
 70
     0
  9
$CMLSCALE
 40
20.0
  9
$PROXYGRAPHICS
 70
     1
  9
$MEASUREMENT
 70
     1
  9
$CELWEIGHT
370
    -1
  9
$ENDCAPS
280
     0
  9
$JOINSTYLE
280
     0
  9
$LWDISPLAY
290
     0
  9
$INSUNITS
 70
     0
  9
$HYPERLINKBASE
  1

  9
$STYLESHEET
  1
monochrome.ctb
  9
$XEDIT
290
     1
  9
$CEPSNTYPE
380
     0
  9
$PSTYLEMODE
290
     1
  9
$FINGERPRINTGUID
  2
{37A4F790-B665-43DF-9FC5-B3B2C3BCEE58}
  9
$VERSIONGUID
  2
{2EC8F94D-0958-4802-9DC8-6C5B60A99ACF}
  9
$EXTNAMES
290
     1
  9
$PSVPSCALE
 40
0.0
  9
$OLESTARTUP
290
     0
  9
$SORTENTS
280
   127
  9
$INDEXCTL
280
     0
  9
$HIDETEXT
280
     0
  9
$XCLIPFRAME
290
     0
  9
$HALOGAP
280
     0
  9
$OBSCOLOR
 70
   257
  9
$OBSLTYPE
280
     0
  9
$INTERSECTIONDISPLAY
280
     0
  9
$INTERSECTIONCOLOR
 70
   257
  9
$DIMASSOC
280
     1
  9
$PROJECTNAME
  1

  0
ENDSEC
  0
SECTION
  2
CLASSES
  0
CLASS
  1
ACDBDICTIONARYWDFLT
  2
AcDbDictionaryWithDefault
  3
ObjectDBX Classes
 90
        0
 91
        1
280
     0
281
     0
  0
CLASS
  1
DICTIONARYVAR
  2
AcDbDictionaryVar
  3
ObjectDBX Classes
 90
        0
 91
        9
280
     0
281
     0
  0
CLASS
  1
SORTENTSTABLE
  2
AcDbSortentsTable
  3
ObjectDBX Classes
 90
        0
 91
        7
280
     0
281
     0
  0
CLASS
  1
MATERIAL
  2
AcDbMaterial
  3
ObjectDBX Classes
 90
     1153
 91
        3
280
     0
281
     0
  0
CLASS
  1
VISUALSTYLE
  2
AcDbVisualStyle
  3
ObjectDBX Classes
 90
     4095
 91
       26
280
     0
281
     0
  0
CLASS
  1
TABLESTYLE
  2
AcDbTableStyle
  3
ObjectDBX Classes
 90
     4095
 91
        1
280
     0
281
     0
  0
CLASS
  1
SCALE
  2
AcDbScale
  3
ObjectDBX Classes
 90
     1153
 91
       17
280
     0
281
     0
  0
CLASS
  1
MLEADERSTYLE
  2
AcDbMLeaderStyle
  3
ACDB_MLEADERSTYLE_CLASS
 90
     4095
 91
        1
280
     0
281
     0
  0
CLASS
  1
CELLSTYLEMAP
  2
AcDbCellStyleMap
  3
ObjectDBX Classes
 90
     1152
 91
        1
280
     0
281
     0
  0
CLASS
  1
IMAGE
  2
AcDbRasterImage
  3
ISM
 90
     2175
 91
        0
280
     0
281
     1
  0
CLASS
  1
IMAGEDEF_REACTOR
  2
AcDbRasterImageDefReactor
  3
ISM
 90
        1
 91
        0
280
     0
281
     0
  0
CLASS
  1
IMAGEDEF
  2
AcDbRasterImageDef
  3
ISM
 90
        0
 91
        1
280
     0
281
     0
  0
CLASS
  1
RASTERVARIABLES
  2
AcDbRasterVariables
  3
ISM
 90
        0
 91
        1
280
     0
281
     0
  0
CLASS
  1
EXACXREFPANELOBJECT
  2
ExAcXREFPanelObject
  3
EXAC_ESW
 90
     1025
 91
        0
280
     0
281
     0
  0
CLASS
  1
NPOCOLLECTION
  2
AcDbImpNonPersistentObjectsCollection
  3
ObjectDBX Classes
 90
     1153
 91
        0
280
     0
281
     0
  0
CLASS
  1
ACAD_EVALUATION_GRAPH
  2
AcDbEvalGraph
  3
ObjectDBX Classes
 90
     1153
 91
        0
280
     0
281
     0
  0
CLASS
  1
ACAECUSTOBJ
  2
AcAeEditorObj
  3
AcAeEditorObj
 90
     1024
 91
        0
280
     0
281
     0
  0
CLASS
  1
ACDB_DYNAMICBLOCKPURGEPREVENTER_VERSION
  2
AcDbDynamicBlockPurgePreventer
  3
ObjectDBX Classes
 90
     1153
 91
        0
280
     0
281
     0
  0
ENDSEC
  0
SECTION
  2
TABLES
  0
TABLE
  2
VPORT
  5
8
330
0
100
AcDbSymbolTable
 70
     1
  0
VPORT
  5
F7A9
330
8
100
AcDbSymbolTableRecord
100
AcDbViewportTableRecord
  2
*Active
 70
     0
 10
0.0
 20
0.0
 11
1.0
 21
1.0
 12
-1025.773944887741
 22
359.5447531006694
 13
0.0
 23
0.0
 14
10.0
 24
10.0
 15
10.0
 25
10.0
 16
0.0
 26
0.0
 36
1.0
 17
0.0
 27
0.0
 37
0.0
 40
3151.876223046986
 41
1.986789960369881
 42
50.0
 43
0.0
 44
0.0
 50
0.0
 51
0.0
 71
     0
 72
   100
 73
     1
 74
     1
 75
     0
 76
     0
 77
     0
 78
     0
281
     0
 65
     1
110
0.0
120
0.0
130
0.0
111
1.0
121
0.0
131
0.0
112
0.0
122
1.0
132
0.0
 79
     0
146
0.0
1001
ACAD_NAV_VCDISPLAY
1070
     3
  0
ENDTAB
  0
TABLE
  2
LTYPE
  5
5
330
0
100
AcDbSymbolTable
 70
     5
  0
LTYPE
  5
12
330
5
100
AcDbSymbolTableRecord
100
AcDbLinetypeTableRecord
  2
BYBLOCK
 70
     0
  3

 72
    65
 73
     0
 40
0.0
  0
LTYPE
  5
13
330
5
100
AcDbSymbolTableRecord
100
AcDbLinetypeTableRecord
  2
BYLAYER
 70
     0
  3

 72
    65
 73
     0
 40
0.0
  0
LTYPE
  5
14
330
5
100
AcDbSymbolTableRecord
100
AcDbLinetypeTableRecord
  2
CONTINUOUS
 70
     0
  3
Solid line
 72
    65
 73
     0
 40
0.0
  0
LTYPE
  5
A83
330
5
100
AcDbSymbolTableRecord
100
AcDbLinetypeTableRecord
  2
HIDDEN2
 70
     0
  3
Hidden (.5x) _ _ _ _ _ _ _ _ _ _ _ _ _ _ _ _ _
 72
    65
 73
     2
 40
4.762499999999999
 49
3.174999999999999
 74
     0
 49
-1.587499999999999
 74
     0
  0
LTYPE
  5
FCF6
330
5
100
AcDbSymbolTableRecord
100
AcDbLinetypeTableRecord
  2
CADRA_SOLID
 70
     0
  3
Cadra_solid
 72
    65
 73
     0
 40
0.0
  0
ENDTAB
  0
TABLE
  2
LAYER
  5
2
102
{ACAD_XDICTIONARY
360
BE
102
}
330
0
100
AcDbSymbolTable
 70
    20
  0
LAYER
  5
E
102
{ACAD_XDICTIONARY
360
F94F
102
}
330
2
100
AcDbSymbolTableRecord
100
AcDbLayerTableRecord
  2
0
 70
     0
 62
     7
  6
CONTINUOUS
370
    -3
390
8C
  0
LAYER
  5
20
102
{ACAD_XDICTIONARY
360
F951
102
}
330
2
100
AcDbSymbolTableRecord
100
AcDbLayerTableRecord
  2
LAFARGE99-I--
 70
     0
 62
    30
  6
CONTINUOUS
370
    -3
390
8C
  0
LAYER
  5
29
102
{ACAD_XDICTIONARY
360
F953
102
}
330
2
100
AcDbSymbolTableRecord
100
AcDbLayerTableRecord
  2
LAFARGE99--T-
 70
     0
 62
     1
  6
CONTINUOUS
370
    -3
390
8C
  0
LAYER
  5
2F
102
{ACAD_XDICTIONARY
360
F955
102
}
330
2
100
AcDbSymbolTableRecord
100
AcDbLayerTableRecord
  2
LAFARGE99-A--1
 70
     0
 62
     6
  6
CONTINUOUS
370
    -3
390
8C
  0
LAYER
  5
32
102
{ACAD_XDICTIONARY
360
F957
102
}
330
2
100
AcDbSymbolTableRecord
100
AcDbLayerTableRecord
  2
LAFARGE99-B--
 70
     0
 62
    52
  6
CONTINUOUS
370
    -3
390
8C
  0
LAYER
  5
35
102
{ACAD_XDICTIONARY
360
F959
102
}
330
2
100
AcDbSymbolTableRecord
100
AcDbLayerTableRecord
  2
LAFARGE99-M--1
 70
     0
 62
    52
  6
CONTINUOUS
370
    -3
390
8C
  0
LAYER
  5
38
102
{ACAD_XDICTIONARY
360
F95B
102
}
330
2
100
AcDbSymbolTableRecord
100
AcDbLayerTableRecord
  2
LAFARGE99-E--1
 70
     0
 62
     8
  6
CONTINUOUS
370
    -3
390
8C
  0
LAYER
  5
3E
102
{ACAD_XDICTIONARY
360
F95D
102
}
330
2
100
AcDbSymbolTableRecord
100
AcDbLayerTableRecord
  2
LAFARGE99-O--
 70
     0
 62
     1
  6
CONTINUOUS
370
    -3
390
8C
  0
LAYER
  5
69
102
{ACAD_XDICTIONARY
360
F95F
102
}
330
2
100
AcDbSymbolTableRecord
100
AcDbLayerTableRecord
  2
LAFARGE09-H--
 70
     0
 62
     3
  6
CONTINUOUS
370
    -3
390
8C
  0
LAYER
  5
6C
102
{ACAD_XDICTIONARY
360
F961
102
}
330
2
100
AcDbSymbolTableRecord
100
AcDbLayerTableRecord
  2
LAFARGE09-S--
 70
     0
 62
     1
  6
CONTINUOUS
370
    -3
390
8C
  0
LAYER
  5
A1
102
{ACAD_XDICTIONARY
360
F963
102
}
330
2
100
AcDbSymbolTableRecord
100
AcDbLayerTableRecord
  2
LAFARGE99--S-2
 70
     0
 62
     8
  6
CONTINUOUS
370
    -3
390
8C
  0
LAYER
  5
A94
102
{ACAD_XDICTIONARY
360
F965
102
}
330
2
100
AcDbSymbolTableRecord
100
AcDbLayerTableRecord
  2
LAFARGE99-A--3
 70
     0
 62
     6
  6
HIDDEN2
370
    -3
390
8C
  0
LAYER
  5
AA5
102
{ACAD_XDICTIONARY
360
F967
102
}
330
2
100
AcDbSymbolTableRecord
100
AcDbLayerTableRecord
  2
LAFARGE99-M--2
 70
     0
 62
    52
  6
CONTINUOUS
370
    -3
390
8C
  0
LAYER
  5
AA6
102
{ACAD_XDICTIONARY
360
F969
102
}
330
2
100
AcDbSymbolTableRecord
100
AcDbLayerTableRecord
  2
LAFARGE99-S--2
 70
     0
 62
     8
  6
CONTINUOUS
370
    -3
390
8C
  0
LAYER
  5
AA8
102
{ACAD_XDICTIONARY
360
F96B
102
}
330
2
100
AcDbSymbolTableRecord
100
AcDbLayerTableRecord
  2
LAFARGE99--M-
 70
     0
 62
     1
  6
CONTINUOUS
370
    -3
390
8C
  0
LAYER
  5
AA9
102
{ACAD_XDICTIONARY
360
F96D
102
}
330
2
100
AcDbSymbolTableRecord
100
AcDbLayerTableRecord
  2
LAFARGE99-T--
 70
     0
 62
     3
  6
CONTINUOUS
370
    -3
390
8C
  0
LAYER
  5
F9D8
330
2
100
AcDbSymbolTableRecord
100
AcDbLayerTableRecord
  2
Defpoints
 70
     0
 62
     7
  6
CONTINUOUS
290
     0
370
    -3
390
8C
  0
LAYER
  5
FCE5
102
{ACAD_XDICTIONARY
360
FCE6
102
}
330
2
100
AcDbSymbolTableRecord
100
AcDbLayerTableRecord
  2
A99--S-
 70
     0
 62
     8
  6
CONTINUOUS
370
    13
390
8C
  0
LAYER
  5
FCE7
330
2
100
AcDbSymbolTableRecord
100
AcDbLayerTableRecord
  2
SX$17
 70
     0
 62
     7
420
 16777215
  6
CONTINUOUS
370
    -3
390
8C
  0
LAYER
  5
FCF7
330
2
100
AcDbSymbolTableRecord
100
AcDbLayerTableRecord
  2
2
 70
     0
 62
   104
  6
CADRA_SOLID
370
    -3
390
8C
  0
ENDTAB
  0
TABLE
  2
STYLE
  5
3
330
0
100
AcDbSymbolTable
 70
     6
  0
STYLE
  5
F
330
3
100
AcDbSymbolTableRecord
100
AcDbTextStyleTableRecord
  2
STANDARD
 70
     0
 40
0.0
 41
1.0
 50
0.0
 71
     0
 42
2.5
  3
txt
  4

  0
STYLE
  5
1CC
330
3
100
AcDbSymbolTableRecord
100
AcDbTextStyleTableRecord
  2
ARIAL
 70
     0
 40
0.0
 41
1.0
 50
0.0
 71
     0
 42
2.0
  3
arial.ttf
  4

1001
ACAD
1000
Arial
1071
       34
  0
STYLE
  5
1CD
330
3
100
AcDbSymbolTableRecord
100
AcDbTextStyleTableRecord
  2
ARIAL-F
 70
     0
 40
1.0
 41
1.0
 50
0.0
 71
     0
 42
1.0
  3
arialbd.ttf
  4

1001
ACAD
1000
Arial
1071
 33554466
  0
STYLE
  5
FCE8
330
3
100
AcDbSymbolTableRecord
100
AcDbTextStyleTableRecord
  2
ISO
 70
     0
 40
0.0
 41
1.0
 50
0.0
 71
     0
 42
12.5
  3
ISO
  4

  0
ENDTAB
  0
TABLE
  2
VIEW
  5
6
330
0
100
AcDbSymbolTable
 70
     0
  0
ENDTAB
  0
TABLE
  2
UCS
  5
7
330
0
100
AcDbSymbolTable
 70
     0
  0
ENDTAB
  0
TABLE
  2
APPID
  5
9
330
0
100
AcDbSymbolTable
 70
    22
  0
APPID
  5
10
330
9
100
AcDbSymbolTableRecord
100
AcDbRegAppTableRecord
  2
ACAD
 70
     0
  0
APPID
  5
D0D
330
9
100
AcDbSymbolTableRecord
100
AcDbRegAppTableRecord
  2
CONTENTTABDATA
 70
     0
  0
APPID
  5
D0E
330
9
100
AcDbSymbolTableRecord
100
AcDbRegAppTableRecord
  2
CONTENTCURRENTTAB
 70
     0
  0
APPID
  5
D0F
330
9
100
AcDbSymbolTableRecord
100
AcDbRegAppTableRecord
  2
CONTENTBLOCKICON
 70
     0
  0
APPID
  5
D10
330
9
100
AcDbSymbolTableRecord
100
AcDbRegAppTableRecord
  2
CONTENTBLOCKDESCRIPTION
 70
     0
  0
APPID
  5
D8F
330
9
100
AcDbSymbolTableRecord
100
AcDbRegAppTableRecord
  2
XREFCLIP
 70
     0
  0
APPID
  5
D90
330
9
100
AcDbSymbolTableRecord
100
AcDbRegAppTableRecord
  2
DCO15
 70
     0
  0
APPID
  5
D91
330
9
100
AcDbSymbolTableRecord
100
AcDbRegAppTableRecord
  2
ADE
 70
     0
  0
APPID
  5
D92
330
9
100
AcDbSymbolTableRecord
100
AcDbRegAppTableRecord
  2
AME_SOL
 70
     0
  0
APPID
  5
D93
330
9
100
AcDbSymbolTableRecord
100
AcDbRegAppTableRecord
  2
AVE_RENDER
 70
     0
  0
APPID
  5
D94
330
9
100
AcDbSymbolTableRecord
100
AcDbRegAppTableRecord
  2
AVE_ENTITY_MATERIAL
 70
     0
  0
APPID
  5
D95
330
9
100
AcDbSymbolTableRecord
100
AcDbRegAppTableRecord
  2
AVE_FINISH
 70
     0
  0
APPID
  5
D96
330
9
100
AcDbSymbolTableRecord
100
AcDbRegAppTableRecord
  2
AVE_MATERIAL
 70
     0
  0
APPID
  5
D97
330
9
100
AcDbSymbolTableRecord
100
AcDbRegAppTableRecord
  2
AVE_GLOBAL
 70
     0
  0
APPID
  5
D98
330
9
100
AcDbSymbolTableRecord
100
AcDbRegAppTableRecord
  2
RAK
 70
     0
  0
APPID
  5
F864
330
9
100
AcDbSymbolTableRecord
100
AcDbRegAppTableRecord
  2
ACAD_EXEMPT_FROM_CAD_STANDARDS
 70
     0
  0
APPID
  5
F866
330
9
100
AcDbSymbolTableRecord
100
AcDbRegAppTableRecord
  2
ACAD_NAV_VCDISPLAY
 70
     0
  0
APPID
  5
F8E9
330
9
100
AcDbSymbolTableRecord
100
AcDbRegAppTableRecord
  2
ACAD_MLEADERVER
 70
     0
  0
APPID
  5
F8F8
330
9
100
AcDbSymbolTableRecord
100
AcDbRegAppTableRecord
  2
ACAD_PSEXT
 70
     0
  0
APPID
  5
FAD3
330
9
100
AcDbSymbolTableRecord
100
AcDbRegAppTableRecord
  2
ACAUTHENVIRON
 70
     0
  0
APPID
  5
FAE0
330
9
100
AcDbSymbolTableRecord
100
AcDbRegAppTableRecord
  2
AcDbDynamicBlockTrueName
 70
     0
  0
APPID
  5
FAE1
330
9
100
AcDbSymbolTableRecord
100
AcDbRegAppTableRecord
  2
AcDbDynamicBlockGUID
 70
     0
  0
ENDTAB
  0
TABLE
  2
DIMSTYLE
  5
A
330
0
100
AcDbSymbolTable
 70
     6
100
AcDbDimStyleTable
 71
     1
340
1D
  0
DIMSTYLE
105
1D
330
A
100
AcDbSymbolTableRecord
100
AcDbDimStyleTableRecord
  2
STANDARD
 70
     0
340
F
  0
DIMSTYLE
105
FCE9
330
A
100
AcDbSymbolTableRecord
100
AcDbDimStyleTableRecord
  2
MORTEN
 70
     0
 41
3.0
 42
3.0
 43
10.0
 44
2.0
 46
2.0
 73
     0
 74
     0
 77
     1
140
3.5
141
4.0
143
25.40000000000001
147
2.0
172
     1
173
     1
174
     1
176
     1
177
     1
178
   256
271
     0
272
     0
340
FCE8
341
895
343
895
344
895
371
    13
372
    13
  0
DIMSTYLE
105
FCEA
330
A
100
AcDbSymbolTableRecord
100
AcDbDimStyleTableRecord
  2
ISO-25
 70
     0
 41
2.5
 42
0.625
 43
3.75
 44
1.25
 74
     0
 77
     1
 78
     8
140
2.5
141
2.5
143
0.0394
145
1.0
147
0.625
172
     1
340
F
  0
ENDTAB
  0
TABLE
  2
BLOCK_RECORD
  5
1
330
0
100
AcDbSymbolTable
 70
    14
  0
BLOCK_RECORD
  5
18
102
{ACAD_XDICTIONARY
360
6578
102
}
330
1
100
AcDbSymbolTableRecord
100
AcDbBlockTableRecord
  2
*MODEL_SPACE
340
91
  0
BLOCK_RECORD
  5
F78F
330
1
100
AcDbSymbolTableRecord
100
AcDbBlockTableRecord
  2
*Paper_Space
340
F790
  0
BLOCK_RECORD
  5
895
330
1
100
AcDbSymbolTableRecord
100
AcDbBlockTableRecord
  2
_OBLIQUE
340
0
102
{BLKREFS
331
E4BE
331
E4BF
102
}
  0
BLOCK_RECORD
  5
7A47
330
1
100
AcDbSymbolTableRecord
100
AcDbBlockTableRecord
  2
teghoved_lafarge 1-10
340
0
1001
ACAD
1000
DesignCenter Data
1002
{
1070
     1
1070
     4
1002
}
  0
BLOCK_RECORD
  5
7AF0
330
1
100
AcDbSymbolTableRecord
100
AcDbBlockTableRecord
  2
Modelramme A4_1-10
340
0
102
{BLKREFS
331
7B09
102
}
1001
ACAD
1000
DesignCenter Data
1002
{
1070
     1
1070
     4
1002
}
  0
BLOCK_RECORD
  5
855C
330
1
100
AcDbSymbolTableRecord
100
AcDbBlockTableRecord
  2
Mursten
340
0
102
{BLKREFS
331
D35B
331
D35C
331
D35D
331
D35E
331
D35F
102
}
  0
BLOCK_RECORD
  5
D68F
102
{ACAD_XDICTIONARY
360
D693
102
}
330
1
100
AcDbSymbolTableRecord
100
AcDbBlockTableRecord
  2
A$C3E890BC7
340
0
102
{BLKREFS
331
D6E7
102
}
  0
BLOCK_RECORD
  5
D94C
102
{ACAD_XDICTIONARY
360
D972
102
}
330
1
100
AcDbSymbolTableRecord
100
AcDbBlockTableRecord
  2
A$C5D0D1E02
340
0
102
{BLKREFS
331
DC91
102
}
  0
BLOCK_RECORD
  5
DC90
102
{ACAD_XDICTIONARY
360
DCC0
102
}
330
1
100
AcDbSymbolTableRecord
100
AcDbBlockTableRecord
  2
A$C6AB6370E
340
0
  0
BLOCK_RECORD
  5
DCFB
102
{ACAD_XDICTIONARY
360
FAD1
102
}
330
1
100
AcDbSymbolTableRecord
100
AcDbBlockTableRecord
  2
A$C74004F54
340
0
1001
AcDbDynamicBlockGUID
1000
{E87FBCBE-08F8-414F-BC08-4A664AFA07A0}
  0
BLOCK_RECORD
  5
DE4E
102
{ACAD_XDICTIONARY
360
FBC3
102
}
330
1
100
AcDbSymbolTableRecord
100
AcDbBlockTableRecord
  2
A$C102C25F8
340
0
1001
AcDbDynamicBlockGUID
1000
{64CA2946-2155-4063-A32B-14EEF0211253}
  0
BLOCK_RECORD
  5
FCBD
102
{ACAD_XDICTIONARY
360
FCBE
102
}
330
1
100
AcDbSymbolTableRecord
100
AcDbBlockTableRecord
  2
A$C655F108E
340
0
  0
BLOCK_RECORD
  5
FD97
330
1
100
AcDbSymbolTableRecord
100
AcDbBlockTableRecord
  2
B&C dobbltvinget
340
0
310
2800000020000000200000000100080000000000000400000000000000000000000000000000000000000000000080000080000000808000800000008000800080800000C0C0C000C0DCC000F0CAA6000020400000206000002080000020A0000020C0000020E00000400000004020000040400000406000004080000040A0
310
000040C0000040E00000600000006020000060400000606000006080000060A0000060C0000060E00000800000008020000080400000806000008080000080A0000080C0000080E00000A0000000A0200000A0400000A0600000A0800000A0A00000A0C00000A0E00000C0000000C0200000C0400000C0600000C0800000C0
310
A00000C0C00000C0E00000E0000000E0200000E0400000E0600000E0800000E0A00000E0C00000E0E00040000000400020004000400040006000400080004000A0004000C0004000E00040200000402020004020400040206000402080004020A0004020C0004020E000404000004040200040404000404060004040800040
310
40A0004040C0004040E00040600000406020004060400040606000406080004060A0004060C0004060E00040800000408020004080400040806000408080004080A0004080C0004080E00040A0000040A0200040A0400040A0600040A0800040A0A00040A0C00040A0E00040C0000040C0200040C0400040C0600040C08000
310
40C0A00040C0C00040C0E00040E0000040E0200040E0400040E0600040E0800040E0A00040E0C00040E0E00080000000800020008000400080006000800080008000A0008000C0008000E00080200000802020008020400080206000802080008020A0008020C0008020E00080400000804020008040400080406000804080
310
008040A0008040C0008040E00080600000806020008060400080606000806080008060A0008060C0008060E00080800000808020008080400080806000808080008080A0008080C0008080E00080A0000080A0200080A0400080A0600080A0800080A0A00080A0C00080A0E00080C0000080C0200080C0400080C0600080C0
310
800080C0A00080C0C00080C0E00080E0000080E0200080E0400080E0600080E0800080E0A00080E0C00080E0E000C0000000C0002000C0004000C0006000C0008000C000A000C000C000C000E000C0200000C0202000C0204000C0206000C0208000C020A000C020C000C020E000C0400000C0402000C0404000C0406000C0
310
408000C040A000C040C000C040E000C0600000C0602000C0604000C0606000C0608000C060A000C060C000C060E000C0800000C0802000C0804000C0806000C0808000C080A000C080C000C080E000C0A00000C0A02000C0A04000C0A06000C0A08000C0A0A000C0A0C000C0A0E000C0C00000C0C02000C0C04000C0C06000
310
C0C08000C0C0A000F0FBFF00A4A0A000808080000000FF0000FF000000FFFF00FF000000FF00FF00FFFF0000FFFFFF0049494949494949494949494949494949494949494949494949494949494949494949494949494949494949494949494949494949494949494949494949494949494949494949494949494949494949
310
49494949494949494949494949494949494949494949494949494949494949494949494949494949494949494949494949494949494949494949494949494949494949494949494949494949494949494949494949494949494949494949494949494949494949494949494949494949494949494949494949494949494949
310
49494949494949494949494949494949494949494949494949494949494949494949494949494949494949494949494949494949494949494949494949494949494949494949494949494949494949494949494949494949494949494949494949494949494949494949494949494949494949494949494949494949494949
310
49494949494949494949494949494949494949494949494949494949494949494949494949494949494949494949494949494949494949494949494949494949494949494949494949494949494949494949494949494949494949494949494949494949494949494949494949494949494949494949491D1D1D1D1D1D1D1D
310
49494949491D1D1D1D1D1DA44949494949494949491D1D1D1D1D1D1D1D1D1DA41D4949491D1D1D1D1D1D1D1D1DA4494949494949491D1D1D1D4949494949491D1D1D1D1D1D1D4949494949491D1D1D1D1D1D1D49494949494949494949494949491D1D1D1D1D494949494949491D1D1D1D1D49494949494949494949494949
310
49494949494949494949494949494949494949494949494949494949494949494949494949494949494949494949494949494949494949494949494949494949494949494949494949494949494949494949494949494949494949494949494949494949494949494949494949494949494949494949494949494949494949
310
49494949494949494949494949494949494949494949494949494949494949494949494949494949494949494949494949494949494949494949494949494949494949494949494949494949494949494949494949494949494949494949494949494949494949494949494949494949494949494949494949494949494949
310
49494949494949494949494949494949494949494949494949494949494949494949494949494949494949494949494949494949494949494949494949494949494949494949494949494949494949494949494949494949494949494949494949494949494949494949494949494949494949494949494949494949494949
310
4949494949494949494949494949494949494949494949494949494949494949494949494949494949494949494949494949494949494949
102
{BLKREFS
331
FDD5
331
FDDD
102
}
  0
ENDTAB
  0
ENDSEC
  0
SECTION
  2
BLOCKS
  0
BLOCK
  5
19
330
18
100
AcDbEntity
  8
0
100
AcDbBlockBegin
  2
*MODEL_SPACE
 70
     0
 10
0.0
 20
0.0
 30
0.0
  3
*MODEL_SPACE
  1

  0
ENDBLK
  5
1A
330
18
100
AcDbEntity
  8
0
100
AcDbBlockEnd
  0
BLOCK
  5
F791
330
F78F
100
AcDbEntity
 67
     1
  8
0
100
AcDbBlockBegin
  2
*Paper_Space
 70
     0
 10
0.0
 20
0.0
 30
0.0
  3
*Paper_Space
  1

  0
ENDBLK
  5
F792
330
F78F
100
AcDbEntity
 67
     1
  8
0
100
AcDbBlockEnd
  0
BLOCK
  5
896
330
895
100
AcDbEntity
  8
0
100
AcDbBlockBegin
  2
_OBLIQUE
 70
     0
 10
0.0
 20
0.0
 30
0.0
  3
_OBLIQUE
  1

  0
LINE
  5
897
330
895
100
AcDbEntity
  8
0
  6
ByBlock
 62
     0
100
AcDbLine
 10
-0.5
 20
-0.5
 30
0.0
 11
0.5
 21
0.5
 31
0.0
  0
ENDBLK
  5
898
330
895
100
AcDbEntity
  8
0
100
AcDbBlockEnd
  0
BLOCK
  5
7A48
330
7A47
100
AcDbEntity
  8
0
100
AcDbBlockBegin
  2
teghoved_lafarge 1-10
 70
     2
 10
0.0
 20
0.0
 30
0.0
  3
teghoved_lafarge 1-10
  1

  0
ATTDEF
  5
EB75
330
7A47
100
AcDbEntity
  8
0
100
AcDbText
 10
-845.8406354766022
 20
172.0609631166576
 30
0.0
 40
25.0
  1
XXX
  7
ARIAL-F
 11
-845.8406354766022
 21
197.0609631166576
 31
0.0
100
AcDbAttributeDefinition
  3
Emne
  2
XX
 70
     0
 74
     3
  0
ATTDEF
  5
EB76
330
7A47
100
AcDbEntity
  8
0
100
AcDbText
 10
-845.8406354766022
 20
111.1877027209393
 30
0.0
 40
20.0
  1
1.2.2005
  7
ARIAL-F
 11
-845.8406354766022
 21
131.1877027209393
 31
0.0
100
AcDbAttributeDefinition
  3
Dato
  2
xx.xx.xxxx
 70
     0
 74
     3
  0
ATTDEF
  5
EB77
330
7A47
100
AcDbEntity
  8
0
100
AcDbText
 10
-548.3912025596683
 20
111.1877027209393
 30
0.0
 40
20.0
  1
1:10
  7
ARIAL-F
 11
-548.3912025596683
 21
131.1877027209393
 31
0.0
100
AcDbAttributeDefinition
  3
Målestok
  2
xxx
 70
     0
 74
     3
  0
ATTDEF
  5
EB78
330
7A47
100
AcDbEntity
  8
0
100
AcDbText
 10
-272.5264232319196
 20
111.1877027209393
 30
0.0
 40
20.0
  1
x.X-x-xx
  7
ARIAL-F
 11
-272.5264232319196
 21
131.1877027209393
 31
0.0
100
AcDbAttributeDefinition
  3
Tegningsnr.
  2
x.X-x-xx
 70
     0
 74
     3
  0
MTEXT
  5
EB79
330
7A47
100
AcDbEntity
  8
0
100
AcDbMText
 10
-1393.101346678275
 20
138.6191176609286
 30
0.0
 40
19.0
 41
309.2430352705569
 71
     1
 72
     5
  1
{\fArial|b1|i0|c0|p34;\H2x;ROOFING}
  7
ARIAL
 73
     1
 44
1.0
  0
LINE
  5
EB7A
330
7A47
100
AcDbEntity
  8
0
100
AcDbLine
 10
-1519.11153929241
 20
151.8570000313047
 30
0.0
 11
-1030.981131074913
 21
151.8570000313047
 31
0.0
  0
LINE
  5
EB7B
102
{ACAD_REACTORS
330
EB84
102
}
330
7A47
100
AcDbEntity
  8
0
100
AcDbLine
 10
-1542.326796441984
 20
128.6861388754337
 30
0.0
 11
-1525.559078237361
 21
166.8271276725786
 31
0.0
  0
LINE
  5
EB7C
102
{ACAD_REACTORS
330
EB84
102
}
330
7A47
100
AcDbEntity
  8
0
100
AcDbLine
 10
-1542.326796441984
 20
128.6861388754337
 30
0.0
 11
-1485.44697213951
 21
128.6861388754332
 31
0.0
  0
LINE
  5
EB7D
102
{ACAD_REACTORS
330
EB84
102
}
330
7A47
100
AcDbEntity
  8
0
100
AcDbLine
 10
-1498.058105416629
 20
100.0000000000004
 30
0.0
 11
-1485.44697213951
 21
128.6861388754332
 31
0.0
  0
LINE
  5
EB7E
102
{ACAD_REACTORS
330
EB84
102
}
330
7A47
100
AcDbEntity
  8
0
100
AcDbLine
 10
-1630.0
 20
100.0
 30
0.0
 11
-1498.058105416629
 21
100.0000000000004
 31
0.0
  0
LINE
  5
EB7F
102
{ACAD_REACTORS
330
EB84
102
}
330
7A47
100
AcDbEntity
  8
0
100
AcDbLine
 10
-1630.0
 20
100.0
 30
0.0
 11
-1542.562781359406
 21
298.8906263766476
 31
0.0
  0
LINE
  5
EB80
102
{ACAD_REACTORS
330
EB84
102
}
330
7A47
100
AcDbEntity
  8
0
100
AcDbLine
 10
-1542.562781359406
 20
298.8906263766476
 30
0.0
 11
-1467.500711078509
 21
298.890626376648
 31
0.0
  0
LINE
  5
EB81
102
{ACAD_REACTORS
330
EB84
102
}
330
7A47
100
AcDbEntity
  8
0
100
AcDbLine
 10
-1497.767447107363
 20
230.0438563084094
 30
0.0
 11
-1467.500711078509
 21
298.890626376648
 31
0.0
  0
LINE
  5
EB82
102
{ACAD_REACTORS
330
EB84
102
}
330
7A47
100
AcDbEntity
  8
0
100
AcDbLine
 10
-1525.559078237361
 20
230.0438563084103
 30
0.0
 11
-1497.767447107363
 21
230.0438563084094
 31
0.0
  0
LINE
  5
EB83
102
{ACAD_REACTORS
330
EB84
102
}
330
7A47
100
AcDbEntity
  8
0
100
AcDbLine
 10
-1525.559078237361
 20
166.8271276725791
 30
0.0
 11
-1525.559078237361
 21
230.0438563084103
 31
0.0
  0
HATCH
  5
EB84
330
7A47
100
AcDbEntity
  8
0
100
AcDbHatch
 10
0.0
 20
0.0
 30
0.0
210
0.0
220
0.0
230
1.0
  2
SOLID
 70
     1
 71
     1
 91
        1
 92
        7
 72
     0
 73
     1
 93
        9
 10
-1525.559078237361
 20
166.8271276725792
 10
-1525.559078237361
 20
230.0438563084103
 10
-1497.767447107364
 20
230.0438563084094
 10
-1467.500711078509
 20
298.8906263766481
 10
-1542.562781359406
 20
298.8906263766476
 10
-1630.0
 20
100.0
 10
-1498.05810541663
 20
100.0000000000005
 10
-1485.44697213951
 20
128.6861388754332
 10
-1542.326796441984
 20
128.6861388754337
 97
        9
330
EB83
330
EB82
330
EB81
330
EB80
330
EB7F
330
EB7E
330
EB7D
330
EB7C
330
EB7B
 75
     0
 76
     1
 47
0.9915722362735602
 98
        1
 10
-1554.194914759496
 20
158.3014002979016
450
        0
451
        0
460
0.0
461
0.0
452
        0
462
0.0
453
        0
470

  0
LINE
  5
EB85
102
{ACAD_REACTORS
330
EBD0
102
}
330
7A47
100
AcDbEntity
  8
0
100
AcDbLine
 10
-1033.167167217448
 20
193.0438563084101
 30
0.0
 11
-1033.167167217448
 21
203.0438563084101
 31
0.0
  0
LINE
  5
EB86
102
{ACAD_REACTORS
330
EBD0
102
}
330
7A47
100
AcDbEntity
  8
0
100
AcDbLine
 10
-1061.167167217448
 20
193.043856308411
 30
0.0
 11
-1033.167167217448
 21
193.0438563084101
 31
0.0
  0
LINE
  5
EB87
102
{ACAD_REACTORS
330
EBD0
102
}
330
7A47
100
AcDbEntity
  8
0
100
AcDbLine
 10
-1061.167167217448
 20
182.0438563084101
 30
0.0
 11
-1061.167167217448
 21
193.043856308411
 31
0.0
  0
LINE
  5
EB88
102
{ACAD_REACTORS
330
EBD0
102
}
330
7A47
100
AcDbEntity
  8
0
100
AcDbLine
 10
-1061.167167217448
 20
182.0438563084101
 30
0.0
 11
-1033.167167217448
 21
182.0438563084115
 31
0.0
  0
LINE
  5
EB89
102
{ACAD_REACTORS
330
EBD0
102
}
330
7A47
100
AcDbEntity
  8
0
100
AcDbLine
 10
-1033.167167217448
 20
182.043856308411
 30
0.0
 11
-1033.167167217448
 21
173.043856308411
 31
0.0
  0
LINE
  5
EB8A
102
{ACAD_REACTORS
330
EBD0
102
}
330
7A47
100
AcDbEntity
  8
0
100
AcDbLine
 10
-1086.167167217448
 20
173.043856308411
 30
0.0
 11
-1033.167167217448
 21
173.043856308411
 31
0.0
  0
LINE
  5
EB8B
102
{ACAD_REACTORS
330
EBD0
102
}
330
7A47
100
AcDbEntity
  8
0
100
AcDbLine
 10
-1086.167167217448
 20
173.0438563084101
 30
0.0
 11
-1086.167167217448
 21
223.0438563084097
 31
0.0
  0
LINE
  5
EB8C
102
{ACAD_REACTORS
330
EBD0
102
}
330
7A47
100
AcDbEntity
  8
0
100
AcDbLine
 10
-1086.167167217448
 20
223.0438563084097
 30
0.0
 11
-1033.167167217448
 21
223.0438563084097
 31
0.0
  0
LINE
  5
EB8D
102
{ACAD_REACTORS
330
EBD0
102
}
330
7A47
100
AcDbEntity
  8
0
100
AcDbLine
 10
-1033.167167217448
 20
214.0438563084097
 30
0.0
 11
-1033.167167217448
 21
223.0438563084097
 31
0.0
  0
LINE
  5
EB8E
102
{ACAD_REACTORS
330
EBD0
102
}
330
7A47
100
AcDbEntity
  8
0
100
AcDbLine
 10
-1061.167167217448
 20
214.0438563084097
 30
0.0
 11
-1033.167167217448
 21
214.0438563084092
 31
0.0
  0
LINE
  5
EB8F
102
{ACAD_REACTORS
330
EBD0
102
}
330
7A47
100
AcDbEntity
  8
0
100
AcDbLine
 10
-1061.167167217448
 20
203.0438563084101
 30
0.0
 11
-1061.167167217448
 21
214.0438563084092
 31
0.0
  0
LINE
  5
EB90
102
{ACAD_REACTORS
330
EBD0
102
}
330
7A47
100
AcDbEntity
  8
0
100
AcDbLine
 10
-1061.167167217448
 20
203.0438563084101
 30
0.0
 11
-1033.167167217448
 21
203.0438563084101
 31
0.0
  0
ARC
  5
EB91
102
{ACAD_REACTORS
330
EBD0
102
}
330
7A47
100
AcDbEntity
  8
0
100
AcDbCircle
 10
-1127.515218794589
 20
198.6226619167357
 30
0.0
 40
15.61446870881694
100
AcDbArc
 50
118.2330301944993
 51
290.6556887732245
  0
LINE
  5
EB92
102
{ACAD_REACTORS
330
EBD0
102
}
330
7A47
100
AcDbEntity
  8
0
100
AcDbLine
 10
-1122.007194855042
 20
184.0119362215452
 30
0.0
 11
-1122.007194855042
 21
192.6783506692202
 31
0.0
  0
LINE
  5
EB93
102
{ACAD_REACTORS
330
EBD0
102
}
330
7A47
100
AcDbEntity
  8
0
100
AcDbLine
 10
-1122.007194855042
 20
192.6783506692202
 30
0.0
 11
-1127.246038806351
 21
192.6783506692206
 31
0.0
  0
LINE
  5
EB94
102
{ACAD_REACTORS
330
EBD0
102
}
330
7A47
100
AcDbEntity
  8
0
100
AcDbLine
 10
-1127.246038806351
 20
192.6783506692206
 30
0.0
 11
-1127.246038806351
 21
202.4914853532275
 31
0.0
  0
LINE
  5
EB95
102
{ACAD_REACTORS
330
EBD0
102
}
330
7A47
100
AcDbEntity
  8
0
100
AcDbLine
 10
-1105.401837835527
 20
202.491485353228
 30
0.0
 11
-1127.246038806351
 21
202.4914853532275
 31
0.0
  0
LINE
  5
EB96
102
{ACAD_REACTORS
330
EBD0
102
}
330
7A47
100
AcDbEntity
  8
0
100
AcDbLine
 10
-1105.401837835527
 20
173.0438563084101
 30
0.0
 11
-1105.401837835527
 21
202.491485353228
 31
0.0
  0
LINE
  5
EB97
102
{ACAD_REACTORS
330
EBD0
102
}
330
7A47
100
AcDbEntity
  8
0
100
AcDbLine
 10
-1105.401837835527
 20
173.043856308411
 30
0.0
 11
-1141.818131336825
 21
173.043856308411
 31
0.0
  0
ARC
  5
EB98
102
{ACAD_REACTORS
330
EBD0
102
}
330
7A47
100
AcDbEntity
  8
0
100
AcDbCircle
 10
-1141.818131336825
 20
198.043856308411
 30
0.0
 40
25.0
100
AcDbArc
 50
90.0
 51
270.0
  0
LINE
  5
EB99
102
{ACAD_REACTORS
330
EBD0
102
}
330
7A47
100
AcDbEntity
  8
0
100
AcDbLine
 10
-1105.401837835527
 20
223.0438563084097
 30
0.0
 11
-1141.818131336825
 21
223.0438563084097
 31
0.0
  0
LINE
  5
EB9A
102
{ACAD_REACTORS
330
EBD0
102
}
330
7A47
100
AcDbEntity
  8
0
100
AcDbLine
 10
-1105.401837835527
 20
210.9179973212592
 30
0.0
 11
-1105.401837835527
 21
223.0438563084097
 31
0.0
  0
ARC
  5
EB9B
102
{ACAD_REACTORS
330
EBD0
102
}
330
7A47
100
AcDbEntity
  8
0
100
AcDbCircle
 10
-1121.826452439677
 20
177.8464183273379
 30
0.0
 40
36.92556434297074
100
AcDbArc
 50
63.58924235772384
 51
110.7382706481709
  0
LINE
  5
EB9C
102
{ACAD_REACTORS
330
EBD0
102
}
330
7A47
100
AcDbEntity
  8
0
100
AcDbLine
 10
-1215.62419219443
 20
202.1578823353041
 30
0.0
 11
-1205.481115653641
 21
202.1578823353036
 31
0.0
  0
ARC
  5
EB9D
102
{ACAD_REACTORS
330
EBD0
102
}
330
7A47
100
AcDbEntity
  8
0
100
AcDbCircle
 10
-1205.481115653641
 20
207.6008693218566
 30
0.0
 40
5.442986986552568
100
AcDbArc
 50
270.0
 51
90.0
  0
LINE
  5
EB9E
102
{ACAD_REACTORS
330
EBD0
102
}
330
7A47
100
AcDbEntity
  8
0
100
AcDbLine
 10
-1215.62419219443
 20
213.0438563084096
 30
0.0
 11
-1205.481115653641
 21
213.0438563084092
 31
0.0
  0
LINE
  5
EB9F
102
{ACAD_REACTORS
330
EBD0
102
}
330
7A47
100
AcDbEntity
  8
0
100
AcDbLine
 10
-1215.62419219443
 20
202.1578823353036
 30
0.0
 11
-1215.62419219443
 21
213.0438563084092
 31
0.0
  0
LINE
  5
EBA0
102
{ACAD_REACTORS
330
EBD0
102
}
330
7A47
100
AcDbEntity
  8
0
100
AcDbLine
 10
-1215.62419219443
 20
173.0438563084101
 30
0.0
 11
-1215.62419219443
 21
192.157882335304
 31
0.0
  0
LINE
  5
EBA1
102
{ACAD_REACTORS
330
EBD0
102
}
330
7A47
100
AcDbEntity
  8
0
100
AcDbLine
 10
-1240.62419219443
 20
173.0438563084101
 30
0.0
 11
-1215.62419219443
 21
173.0438563084096
 31
0.0
  0
LINE
  5
EBA2
102
{ACAD_REACTORS
330
EBD0
102
}
330
7A47
100
AcDbEntity
  8
0
100
AcDbLine
 10
-1240.62419219443
 20
173.0438563084101
 30
0.0
 11
-1240.62419219443
 21
223.0438563084097
 31
0.0
  0
LINE
  5
EBA3
102
{ACAD_REACTORS
330
EBD0
102
}
330
7A47
100
AcDbEntity
  8
0
100
AcDbLine
 10
-1240.62419219443
 20
223.0438563084097
 30
0.0
 11
-1190.969000953884
 21
223.0438563084097
 31
0.0
  0
ARC
  5
EBA4
102
{ACAD_REACTORS
330
EBD0
102
}
330
7A47
100
AcDbEntity
  8
0
100
AcDbCircle
 10
-1190.969000953884
 20
210.1008693218566
 30
0.0
 40
12.94298698655302
100
AcDbArc
 50
272.1922448110098
 51
90.0
  0
ARC
  5
EBA5
102
{ACAD_REACTORS
330
EBD0
102
}
330
7A47
100
AcDbEntity
  8
0
100
AcDbCircle
 10
-1200.479869491198
 20
174.9732844418179
 30
0.0
 40
24.34535340817272
100
AcDbArc
 50
355.45440397584
 51
65.73225225477391
  0
LINE
  5
EBA6
102
{ACAD_REACTORS
330
EBD0
102
}
330
7A47
100
AcDbEntity
  8
0
100
AcDbLine
 10
-1199.571017262543
 20
173.0438563084096
 30
0.0
 11
-1176.211092438234
 21
173.0438563084101
 31
0.0
  0
LINE
  5
EBA7
102
{ACAD_REACTORS
330
EBD0
102
}
330
7A47
100
AcDbEntity
  8
0
100
AcDbLine
 10
-1199.571017262543
 20
173.0438563084096
 30
0.0
 11
-1199.571017262543
 21
179.5120312930887
 31
0.0
  0
ARC
  5
EBA8
102
{ACAD_REACTORS
330
EBD0
102
}
330
7A47
100
AcDbEntity
  8
0
100
AcDbCircle
 10
-1211.858373532516
 20
180.0607863283051
 30
0.0
 40
12.29960390394408
100
AcDbArc
 50
357.4428617316141
 51
79.58856171121232
  0
LINE
  5
EBA9
102
{ACAD_REACTORS
330
EBD0
102
}
330
7A47
100
AcDbEntity
  8
0
100
AcDbLine
 10
-1215.62419219443
 20
192.157882335304
 30
0.0
 11
-1209.635644491142
 21
192.157882335304
 31
0.0
  0
LINE
  5
EBAA
102
{ACAD_REACTORS
330
EBD0
102
}
330
7A47
100
AcDbEntity
  8
0
100
AcDbLine
 10
-1294.707622861026
 20
195.1678827347825
 30
0.0
 11
-1278.856517118908
 21
195.1678827347825
 31
0.0
  0
LINE
  5
EBAB
102
{ACAD_REACTORS
330
EBD0
102
}
330
7A47
100
AcDbEntity
  8
0
100
AcDbLine
 10
-1278.856517118908
 20
195.1678827347825
 30
0.0
 11
-1286.782069989967
 21
215.3895140789748
 31
0.0
  0
LINE
  5
EBAC
102
{ACAD_REACTORS
330
EBD0
102
}
330
7A47
100
AcDbEntity
  8
0
100
AcDbLine
 10
-1294.707622861026
 20
195.1678827347825
 30
0.0
 11
-1286.782069989967
 21
215.3895140789748
 31
0.0
  0
LINE
  5
EBAD
102
{ACAD_REACTORS
330
EBD0
102
}
330
7A47
100
AcDbEntity
  8
0
100
AcDbLine
 10
-1249.185350179982
 20
173.043856308411
 30
0.0
 11
-1269.782069989967
 21
223.0438563084101
 31
0.0
  0
LINE
  5
EBAE
102
{ACAD_REACTORS
330
EBD0
102
}
330
7A47
100
AcDbEntity
  8
0
100
AcDbLine
 10
-1270.185350179982
 20
173.0438563084105
 30
0.0
 11
-1249.185350179982
 21
173.0438563084101
 31
0.0
  0
LINE
  5
EBAF
102
{ACAD_REACTORS
330
EBD0
102
}
330
7A47
100
AcDbEntity
  8
0
100
AcDbLine
 10
-1270.185350179982
 20
173.043856308411
 30
0.0
 11
-1274.153304364512
 21
183.1678827347825
 31
0.0
  0
LINE
  5
EBB0
102
{ACAD_REACTORS
330
EBD0
102
}
330
7A47
100
AcDbEntity
  8
0
100
AcDbLine
 10
-1299.410835615422
 20
183.1678827347825
 30
0.0
 11
-1274.153304364511
 21
183.1678827347825
 31
0.0
  0
LINE
  5
EBB1
102
{ACAD_REACTORS
330
EBD0
102
}
330
7A47
100
AcDbEntity
  8
0
100
AcDbLine
 10
-1303.378789799953
 20
173.043856308411
 30
0.0
 11
-1299.410835615422
 21
183.1678827347825
 31
0.0
  0
LINE
  5
EBB2
102
{ACAD_REACTORS
330
EBD0
102
}
330
7A47
100
AcDbEntity
  8
0
100
AcDbLine
 10
-1324.378789799952
 20
173.043856308411
 30
0.0
 11
-1303.378789799953
 21
173.0438563084105
 31
0.0
  0
LINE
  5
EBB3
102
{ACAD_REACTORS
330
EBD0
102
}
330
7A47
100
AcDbEntity
  8
0
100
AcDbLine
 10
-1324.378789799953
 20
173.043856308411
 30
0.0
 11
-1303.782069989967
 21
223.0438563084101
 31
0.0
  0
LINE
  5
EBB4
102
{ACAD_REACTORS
330
EBD0
102
}
330
7A47
100
AcDbEntity
  8
0
100
AcDbLine
 10
-1303.782069989967
 20
223.0438563084106
 30
0.0
 11
-1269.782069989968
 21
223.0438563084106
 31
0.0
  0
LINE
  5
EBB5
102
{ACAD_REACTORS
330
EBD0
102
}
330
7A47
100
AcDbEntity
  8
0
100
AcDbLine
 10
-1327.378789799953
 20
192.157882335304
 30
0.0
 11
-1327.378789799953
 21
202.1578823353041
 31
0.0
  0
LINE
  5
EBB6
102
{ACAD_REACTORS
330
EBD0
102
}
330
7A47
100
AcDbEntity
  8
0
100
AcDbLine
 10
-1355.378789799952
 20
192.1578823353045
 30
0.0
 11
-1327.378789799953
 21
192.157882335304
 31
0.0
  0
LINE
  5
EBB7
102
{ACAD_REACTORS
330
EBD0
102
}
330
7A47
100
AcDbEntity
  8
0
100
AcDbLine
 10
-1355.378789799952
 20
173.0438563084101
 30
0.0
 11
-1355.378789799952
 21
192.157882335304
 31
0.0
  0
LINE
  5
EBB8
102
{ACAD_REACTORS
330
EBD0
102
}
330
7A47
100
AcDbEntity
  8
0
100
AcDbLine
 10
-1380.378789799953
 20
173.0438563084101
 30
0.0
 11
-1355.378789799952
 21
173.0438563084096
 31
0.0
  0
LINE
  5
EBB9
102
{ACAD_REACTORS
330
EBD0
102
}
330
7A47
100
AcDbEntity
  8
0
100
AcDbLine
 10
-1380.378789799953
 20
173.0438563084101
 30
0.0
 11
-1380.378789799953
 21
223.0438563084097
 31
0.0
  0
LINE
  5
EBBA
102
{ACAD_REACTORS
330
EBD0
102
}
330
7A47
100
AcDbEntity
  8
0
100
AcDbLine
 10
-1380.378789799953
 20
223.0438563084097
 30
0.0
 11
-1327.378789799953
 21
223.0438563084097
 31
0.0
  0
LINE
  5
EBBB
102
{ACAD_REACTORS
330
EBD0
102
}
330
7A47
100
AcDbEntity
  8
0
100
AcDbLine
 10
-1327.378789799953
 20
213.0438563084096
 30
0.0
 11
-1327.378789799953
 21
223.0438563084097
 31
0.0
  0
LINE
  5
EBBC
102
{ACAD_REACTORS
330
EBD0
102
}
330
7A47
100
AcDbEntity
  8
0
100
AcDbLine
 10
-1355.378789799952
 20
213.0438563084096
 30
0.0
 11
-1327.378789799953
 21
213.0438563084092
 31
0.0
  0
LINE
  5
EBBD
102
{ACAD_REACTORS
330
EBD0
102
}
330
7A47
100
AcDbEntity
  8
0
100
AcDbLine
 10
-1355.378789799952
 20
202.1578823353036
 30
0.0
 11
-1355.378789799952
 21
213.0438563084092
 31
0.0
  0
LINE
  5
EBBE
102
{ACAD_REACTORS
330
EBD0
102
}
330
7A47
100
AcDbEntity
  8
0
100
AcDbLine
 10
-1355.378789799952
 20
202.1578823353041
 30
0.0
 11
-1327.378789799953
 21
202.1578823353041
 31
0.0
  0
LINE
  5
EBBF
102
{ACAD_REACTORS
330
EBD0
102
}
330
7A47
100
AcDbEntity
  8
0
100
AcDbLine
 10
-1434.703671487018
 20
195.1678827347821
 30
0.0
 11
-1418.852565744901
 21
195.1678827347821
 31
0.0
  0
LINE
  5
EBC0
102
{ACAD_REACTORS
330
EBD0
102
}
330
7A47
100
AcDbEntity
  8
0
100
AcDbLine
 10
-1418.8525657449
 20
195.1678827347821
 30
0.0
 11
-1426.77811861596
 21
215.3895140789743
 31
0.0
  0
LINE
  5
EBC1
102
{ACAD_REACTORS
330
EBD0
102
}
330
7A47
100
AcDbEntity
  8
0
100
AcDbLine
 10
-1434.703671487018
 20
195.1678827347821
 30
0.0
 11
-1426.77811861596
 21
215.3895140789743
 31
0.0
  0
LINE
  5
EBC2
102
{ACAD_REACTORS
330
EBD0
102
}
330
7A47
100
AcDbEntity
  8
0
100
AcDbLine
 10
-1389.181398805974
 20
173.0438563084105
 30
0.0
 11
-1409.778118615959
 21
223.0438563084097
 31
0.0
  0
LINE
  5
EBC3
102
{ACAD_REACTORS
330
EBD0
102
}
330
7A47
100
AcDbEntity
  8
0
100
AcDbLine
 10
-1410.181398805974
 20
173.0438563084101
 30
0.0
 11
-1389.181398805974
 21
173.0438563084096
 31
0.0
  0
LINE
  5
EBC4
102
{ACAD_REACTORS
330
EBD0
102
}
330
7A47
100
AcDbEntity
  8
0
100
AcDbLine
 10
-1410.181398805974
 20
173.0438563084105
 30
0.0
 11
-1414.149352990504
 21
183.1678827347821
 31
0.0
  0
LINE
  5
EBC5
102
{ACAD_REACTORS
330
EBD0
102
}
330
7A47
100
AcDbEntity
  8
0
100
AcDbLine
 10
-1439.406884241413
 20
183.1678827347821
 30
0.0
 11
-1414.149352990504
 21
183.1678827347821
 31
0.0
  0
LINE
  5
EBC6
102
{ACAD_REACTORS
330
EBD0
102
}
330
7A47
100
AcDbEntity
  8
0
100
AcDbLine
 10
-1443.374838425944
 20
173.0438563084105
 30
0.0
 11
-1439.406884241413
 21
183.1678827347821
 31
0.0
  0
LINE
  5
EBC7
102
{ACAD_REACTORS
330
EBD0
102
}
330
7A47
100
AcDbEntity
  8
0
100
AcDbLine
 10
-1464.374838425944
 20
173.0438563084105
 30
0.0
 11
-1443.374838425944
 21
173.0438563084101
 31
0.0
  0
LINE
  5
EBC8
102
{ACAD_REACTORS
330
EBD0
102
}
330
7A47
100
AcDbEntity
  8
0
100
AcDbLine
 10
-1464.374838425944
 20
173.0438563084105
 30
0.0
 11
-1443.77811861596
 21
223.0438563084097
 31
0.0
  0
LINE
  5
EBC9
102
{ACAD_REACTORS
330
EBD0
102
}
330
7A47
100
AcDbEntity
  8
0
100
AcDbLine
 10
-1443.778118615959
 20
223.0438563084101
 30
0.0
 11
-1409.77811861596
 21
223.0438563084101
 31
0.0
  0
LINE
  5
EBCA
102
{ACAD_REACTORS
330
EBD0
102
}
330
7A47
100
AcDbEntity
  8
0
100
AcDbLine
 10
-1493.559078237361
 20
186.3033127336964
 30
0.0
 11
-1493.559078237361
 21
223.0438563084101
 31
0.0
  0
LINE
  5
EBCB
102
{ACAD_REACTORS
330
EBD0
102
}
330
7A47
100
AcDbEntity
  8
0
100
AcDbLine
 10
-1493.559078237361
 20
186.3033127336964
 30
0.0
 11
-1467.374838425944
 21
186.3033127336964
 31
0.0
  0
LINE
  5
EBCC
102
{ACAD_REACTORS
330
EBD0
102
}
330
7A47
100
AcDbEntity
  8
0
100
AcDbLine
 10
-1467.374838425944
 20
173.0438563084096
 30
0.0
 11
-1467.374838425944
 21
186.3033127336964
 31
0.0
  0
LINE
  5
EBCD
102
{ACAD_REACTORS
330
EBD0
102
}
330
7A47
100
AcDbEntity
  8
0
100
AcDbLine
 10
-1518.559078237361
 20
173.0438563084101
 30
0.0
 11
-1467.374838425944
 21
173.0438563084101
 31
0.0
  0
LINE
  5
EBCE
102
{ACAD_REACTORS
330
EBD0
102
}
330
7A47
100
AcDbEntity
  8
0
100
AcDbLine
 10
-1518.559078237361
 20
173.0438563084101
 30
0.0
 11
-1518.559078237361
 21
223.0438563084101
 31
0.0
  0
LINE
  5
EBCF
102
{ACAD_REACTORS
330
EBD0
102
}
330
7A47
100
AcDbEntity
  8
0
100
AcDbLine
 10
-1518.559078237361
 20
223.0438563084101
 30
0.0
 11
-1493.559078237361
 21
223.0438563084101
 31
0.0
  0
HATCH
  5
EBD0
330
7A47
100
AcDbEntity
  8
0
100
AcDbHatch
 10
0.0
 20
0.0
 30
0.0
210
0.0
220
0.0
230
1.0
  2
SOLID
 70
     1
 71
     1
 91
       10
 92
        7
 72
     0
 73
     1
 93
        6
 10
-1518.559078237361
 20
173.0438563084101
 10
-1467.374838425944
 20
173.0438563084101
 10
-1467.374838425944
 20
186.3033127336965
 10
-1493.559078237361
 20
186.3033127336964
 10
-1493.559078237361
 20
223.0438563084102
 10
-1518.559078237361
 20
223.0438563084102
 97
        6
330
EBCF
330
EBCE
330
EBCD
330
EBCC
330
EBCB
330
EBCA
 92
        7
 72
     0
 73
     1
 93
        8
 10
-1439.406884241413
 20
183.1678827347821
 10
-1414.149352990504
 20
183.167882734782
 10
-1410.181398805973
 20
173.04385630841
 10
-1389.181398805973
 20
173.0438563084096
 10
-1409.778118615959
 20
223.0438563084102
 10
-1443.778118615959
 20
223.0438563084101
 10
-1464.374838425944
 20
173.0438563084105
 10
-1443.374838425945
 20
173.0438563084101
 97
        8
330
EBC9
330
EBC8
330
EBC7
330
EBC6
330
EBC5
330
EBC4
330
EBC3
330
EBC2
 92
       22
 72
     0
 73
     1
 93
        3
 10
-1434.703671487018
 20
195.1678827347822
 10
-1426.77811861596
 20
215.3895140789743
 10
-1418.8525657449
 20
195.1678827347821
 97
        3
330
EBC1
330
EBC0
330
EBBF
 92
        7
 72
     0
 73
     1
 93
       10
 10
-1380.378789799953
 20
173.0438563084101
 10
-1355.378789799952
 20
173.0438563084096
 10
-1355.378789799952
 20
192.1578823353046
 10
-1327.378789799953
 20
192.157882335304
 10
-1327.378789799953
 20
202.1578823353041
 10
-1355.378789799952
 20
202.1578823353041
 10
-1355.378789799952
 20
213.0438563084096
 10
-1327.378789799953
 20
213.0438563084092
 10
-1327.378789799953
 20
223.0438563084097
 10
-1380.378789799953
 20
223.0438563084097
 97
       10
330
EBBE
330
EBBD
330
EBBC
330
EBBB
330
EBBA
330
EBB9
330
EBB8
330
EBB7
330
EBB6
330
EBB5
 92
        7
 72
     0
 73
     1
 93
        8
 10
-1324.378789799953
 20
173.043856308411
 10
-1303.378789799953
 20
173.0438563084105
 10
-1299.410835615422
 20
183.1678827347826
 10
-1274.153304364512
 20
183.1678827347825
 10
-1270.185350179982
 20
173.0438563084105
 10
-1249.185350179982
 20
173.04385630841
 10
-1269.782069989967
 20
223.0438563084106
 10
-1303.782069989967
 20
223.0438563084105
 97
        8
330
EBB4
330
EBB3
330
EBB2
330
EBB1
330
EBB0
330
EBAF
330
EBAE
330
EBAD
 92
       22
 72
     0
 73
     1
 93
        3
 10
-1294.707622861026
 20
195.1678827347828
 10
-1286.782069989967
 20
215.3895140789748
 10
-1278.856517118908
 20
195.1678827347825
 97
        3
330
EBAC
330
EBAB
330
EBAA
 92
        7
 72
     1
 73
     1
 93
       10
 10
-1190.969000953773
 20
223.0438563084097
 42
-0.9810497451805865
 10
-1190.473898633335
 20
197.1673552662618
 42
-0.3166321639699637
 10
-1176.211092438234
 20
173.0438563084101
 42
0.0
 10
-1199.571017262543
 20
173.0438563084096
 42
0.0
 10
-1199.571017262543
 20
180.60954136351
 42
0.3493694722793605
 10
-1209.635644491142
 20
192.157882335304
 42
0.0
 10
-1215.62419219443
 20
192.157882335304
 42
0.0
 10
-1215.62419219443
 20
173.0438563084097
 42
0.0
 10
-1240.62419219443
 20
173.0438563084101
 42
0.0
 10
-1240.62419219443
 20
223.0438563084097
 42
0.0
 97
       10
330
EBA9
330
EBA8
330
EBA7
330
EBA6
330
EBA5
330
EBA4
330
EBA3
330
EBA2
330
EBA1
330
EBA0
 92
       22
 72
     1
 73
     1
 93
        4
 10
-1215.62419219443
 20
202.1578823353038
 42
0.0
 10
-1215.624192194431
 20
213.0438563084097
 42
0.0
 10
-1205.481115653641
 20
213.0438563084092
 42
-1.0
 10
-1205.481115653641
 20
202.1578823353036
 42
0.0
 97
        4
330
EB9F
330
EB9E
330
EB9D
330
EB9C
 92
        7
 72
     1
 73
     1
 93
       11
 10
-1141.818131336825
 20
173.043856308411
 42
0.0
 10
-1105.401837835528
 20
173.043856308411
 42
0.0
 10
-1105.401837835527
 20
202.491485353228
 42
0.0
 10
-1127.246038806351
 20
202.4914853532275
 42
0.0
 10
-1127.246038806351
 20
192.6783506692206
 42
0.0
 10
-1122.007194855042
 20
192.6783506692203
 42
0.0
 10
-1122.007194855042
 20
184.0119362215452
 42
-0.935968909692365
 10
-1134.901779767523
 20
212.3794911317753
 42
-0.208678782449797
 10
-1105.401837835527
 20
210.9179973212721
 42
0.0
 10
-1105.401837835527
 20
223.0438563084097
 42
0.0
 10
-1141.818131336825
 20
223.0438563084097
 42
1.0
 97
       11
330
EB9B
330
EB9A
330
EB99
330
EB98
330
EB97
330
EB96
330
EB95
330
EB94
330
EB93
330
EB92
330
EB91
 92
        7
 72
     0
 73
     1
 93
       12
 10
-1086.167167217448
 20
173.043856308411
 10
-1033.167167217448
 20
173.0438563084109
 10
-1033.167167217448
 20
182.0438563084115
 10
-1061.167167217448
 20
182.04385630841
 10
-1061.167167217448
 20
193.043856308411
 10
-1033.167167217448
 20
193.0438563084101
 10
-1033.167167217448
 20
203.0438563084101
 10
-1061.167167217448
 20
203.04385630841
 10
-1061.167167217448
 20
214.0438563084097
 10
-1033.167167217448
 20
214.0438563084093
 10
-1033.167167217448
 20
223.0438563084097
 10
-1086.167167217448
 20
223.0438563084096
 97
       12
330
EB90
330
EB8F
330
EB8E
330
EB8D
330
EB8C
330
EB8B
330
EB8A
330
EB89
330
EB88
330
EB87
330
EB86
330
EB85
 75
     0
 76
     1
 47
0.9915722362735602
 98
       10
 10
-1506.965382466372
 20
205.3896285156445
 10
-1442.483692079116
 20
191.5076079564262
 10
-1442.483692079116
 20
191.5076079564262
 10
-1370.065802342061
 20
193.4907599948858
 10
-1308.560217805839
 20
186.5497570002774
 10
-1308.560217805839
 20
186.5497570002774
 10
-1222.253962245801
 20
190.5160465071969
 10
-1222.253962245801
 20
190.5160465071969
 10
-1156.780266727458
 20
190.5160465071969
 10
-1077.418182771692
 20
195.4738974633458
450
        0
451
        0
460
0.0
461
0.0
452
        0
462
0.0
453
        0
470

  0
LINE
  5
EBD1
330
7A47
100
AcDbEntity
  8
0
100
AcDbLine
 10
-87.72503757492268
 20
151.8570000313047
 30
0.0
 11
-957.7250375749228
 21
151.8570000313047
 31
0.0
  0
MTEXT
  5
EBD2
330
7A47
100
AcDbEntity
  8
0
100
AcDbMText
 10
-942.5903069472505
 20
131.1880500074608
 30
0.0
 40
20.0
 41
77.35910045700551
 71
     1
 72
     5
  1
Dato
  7
ARIAL
 73
     1
 44
1.0
  0
MTEXT
  5
EBD3
330
7A47
100
AcDbEntity
  8
0
100
AcDbMText
 10
-620.1452760643315
 20
131.8725109002757
 30
0.0
 40
20.0
 41
195.7142857142857
 71
     1
 72
     5
  1
Mål
  7
ARIAL
 73
     1
 44
1.0
  0
MTEXT
  5
EBD4
330
7A47
100
AcDbEntity
  8
0
100
AcDbMText
 10
-412.9511459111636
 20
131.1880500074608
 30
0.0
 40
20.0
 41
123.4966330743262
 71
     1
 72
     5
  1
Tegn.nr.
  7
ARIAL
 73
     1
 44
1.0
  0
MTEXT
  5
EBD5
330
7A47
100
AcDbEntity
  8
0
100
AcDbMText
 10
-858.5053046133108
 20
131.1880500074608
 30
0.0
 40
20.0
 41
77.35910045700551
 71
     1
 72
     5
  1
:
  7
ARIAL
 73
     1
 44
1.0
  0
MTEXT
  5
EBD6
330
7A47
100
AcDbEntity
  8
0
100
AcDbMText
 10
-858.5053046133108
 20
192.0637300074604
 30
0.0
 40
20.0
 41
77.35910045700551
 71
     1
 72
     5
  1
:
  7
ARIAL
 73
     1
 44
1.0
  0
MTEXT
  5
EBD7
330
7A47
100
AcDbEntity
  8
0
100
AcDbMText
 10
-942.5903069472505
 20
192.0637300074604
 30
0.0
 40
20.0
 41
77.35910045700551
 71
     1
 72
     5
  1
Emne
  7
ARIAL
 73
     1
 44
1.0
  0
MTEXT
  5
EBD8
330
7A47
100
AcDbEntity
  8
0
100
AcDbMText
 10
-559.5767103191247
 20
131.1880500074608
 30
0.0
 40
20.0
 41
77.35910045700551
 71
     1
 72
     5
  1
:
  7
ARIAL
 73
     1
 44
1.0
  0
MTEXT
  5
EBD9
330
7A47
100
AcDbEntity
  8
0
100
AcDbMText
 10
-287.9801683350088
 20
131.1880500074608
 30
0.0
 40
20.0
 41
77.35910045700551
 71
     1
 72
     5
  1
:
  7
ARIAL
 73
     1
 44
1.0
  0
ENDBLK
  5
7AEF
330
7A47
100
AcDbEntity
  8
0
100
AcDbBlockEnd
  0
BLOCK
  5
7AF1
330
7AF0
100
AcDbEntity
  8
0
100
AcDbBlockBegin
  2
Modelramme A4_1-10
 70
     0
 10
0.0
 20
0.0
 30
0.0
  3
Modelramme A4_1-10
  1

  0
LWPOLYLINE
  5
7AF2
330
7AF0
100
AcDbEntity
  8
0
100
AcDbPolyline
 90
        3
 70
     0
 43
0.0
 10
3150.0
 20
2810.0
 10
3150.0
 20
2970.0
 10
2990.0
 20
2970.0
  0
LWPOLYLINE
  5
7AF3
330
7AF0
100
AcDbEntity
  8
0
100
AcDbPolyline
 90
        3
 70
     0
 43
0.0
 10
3150.0
 20
160.0
 10
3150.0
 20
0.0
 10
2990.0
 20
0.0
  0
LWPOLYLINE
  5
7AF4
330
7AF0
100
AcDbEntity
  8
0
100
AcDbPolyline
 90
        3
 70
     0
 43
0.0
 10
1050.0
 20
160.0
 10
1050.0
 20
0.0
 10
1210.0
 20
0.0
  0
LWPOLYLINE
  5
7AF5
330
7AF0
100
AcDbEntity
  8
0
100
AcDbPolyline
 90
        3
 70
     0
 43
0.0
 10
1050.0
 20
2810.0
 10
1050.0
 20
2970.0
 10
1210.0
 20
2970.0
  0
LWPOLYLINE
  5
7AF6
330
7AF0
100
AcDbEntity
  8
0
100
AcDbPolyline
 90
        4
 70
     1
 43
0.0
 10
1110.0
 20
60.0
 10
3090.0
 20
60.0
 10
3090.0
 20
2910.0
 10
1110.0
 20
2910.0
  0
ENDBLK
  5
7AF7
330
7AF0
100
AcDbEntity
  8
0
100
AcDbBlockEnd
  0
BLOCK
  5
855D
330
855C
100
AcDbEntity
  8
0
100
AcDbBlockBegin
  2
Mursten
 70
     0
 10
0.0
 20
0.0
 30
0.0
  3
Mursten
  1

  0
LWPOLYLINE
  5
855E
330
855C
100
AcDbEntity
  8
0
100
AcDbPolyline
 90
        4
 70
     1
 43
0.0
 10
-108.0
 20
0.0
 10
-108.0
 20
55.0
 10
0.0
 20
55.0
 10
0.0
 20
0.0
1001
ACAD
1000
ASC_BOUNDS
1002
{
1070
    19
1002
}
  0
LWPOLYLINE
  5
855F
330
855C
100
AcDbEntity
  8
0
100
AcDbPolyline
 90
        4
 70
     1
 43
0.0
 10
-105.0
 20
66.66666666666651
 10
0.0
 20
66.66666666666651
 10
0.0
 20
55.0
 10
-105.0
 20
55.0
1001
ACAD
1000
ASC_BOUNDS
1002
{
1070
    19
1002
}
  0
ENDBLK
  5
8560
330
855C
100
AcDbEntity
  8
0
100
AcDbBlockEnd
  0
BLOCK
  5
D695
330
D68F
100
AcDbEntity
  8
0
100
AcDbBlockBegin
  2
A$C3E890BC7
 70
     0
 10
0.0
 20
0.0
 30
0.0
  3
A$C3E890BC7
  1

  0
LWPOLYLINE
  5
D690
330
D68F
100
AcDbEntity
  8
0
100
AcDbPolyline
 90
        4
 70
     1
 43
0.0
 10
0.0
 20
0.0
 10
50.0
 20
0.0
 10
50.0
 20
25.0
 10
0.0
 20
25.0
  0
LINE
  5
D691
330
D68F
100
AcDbEntity
  8
LAFARGE99--S-2
100
AcDbLine
 10
0.0
 20
0.0
 30
0.0
 11
50.0
 21
25.0
 31
0.0
  0
LINE
  5
D692
330
D68F
100
AcDbEntity
  8
LAFARGE99--S-2
100
AcDbLine
 10
50.0
 20
0.0
 30
0.0
 11
0.0
 21
25.0
 31
0.0
  0
ENDBLK
  5
D696
330
D68F
100
AcDbEntity
  8
0
100
AcDbBlockEnd
  0
BLOCK
  5
D974
330
D94C
100
AcDbEntity
  8
0
100
AcDbBlockBegin
  2
A$C5D0D1E02
 70
     0
 10
0.0
 20
0.0
 30
0.0
  3
A$C5D0D1E02
  1

  0
LINE
  5
D94D
330
D94C
100
AcDbEntity
  8
LAFARGE99--S-2
100
AcDbLine
 10
305.6762733366129
 20
9.105283937278045
 30
0.0
 11
310.1528953780073
 21
13.57743159344795
 31
0.0
  0
LINE
  5
D94E
330
D94C
100
AcDbEntity
  8
LAFARGE99--S-2
100
AcDbLine
 10
299.9772690107218
 20
11.89301768169798
 30
0.0
 11
305.5951288588746
 21
17.50526247706079
 31
0.0
  0
LINE
  5
D94F
330
D94C
100
AcDbEntity
  8
LAFARGE99--S-2
100
AcDbLine
 10
294.3888692945695
 20
14.79124548651248
 30
0.0
 11
300.4074498881948
 21
20.803810506829
 31
0.0
  0
LINE
  5
D950
330
D94C
100
AcDbEntity
  8
LAFARGE99--S-2
100
AcDbLine
 10
283.1572042872819
 20
12.05184844572954
 30
0.0
 11
294.5231672577386
 21
23.40645113241112
 31
0.0
  0
LINE
  5
D951
330
D94C
100
AcDbEntity
  8
LAFARGE99--S-2
100
AcDbLine
 10
274.1060485274763
 20
11.4907812327101
 30
0.0
 11
287.8014627526547
 21
25.17250688680793
 31
0.0
  0
LINE
  5
D952
330
D94C
100
AcDbEntity
  8
LAFARGE99--S-2
100
AcDbLine
 10
259.6130882977288
 20
5.493348635128768
 30
0.0
 11
279.9434555971352
 21
25.80339572564685
 31
0.0
  0
LINE
  5
D953
330
D94C
100
AcDbEntity
  8
LAFARGE99--S-2
100
AcDbLine
 10
200.3869383753213
 20
-45.19256281711295
 30
0.0
 11
270.1564279304296
 21
24.50719210994293
 31
0.0
  0
LINE
  5
D954
330
D94C
100
AcDbEntity
  8
LAFARGE99--S-2
100
AcDbLine
 10
194.1073664359348
 20
-42.98481640866509
 30
0.0
 11
226.4245738980112
 21
-10.69991000621303
 31
0.0
  0
LINE
  5
D955
330
D94C
100
AcDbEntity
  8
LAFARGE99--S-2
100
AcDbLine
 10
187.7978134811917
 20
-40.80702104953957
 30
0.0
 11
205.2054655699849
 21
-23.41676791480825
 31
0.0
  0
LINE
  5
D956
330
D94C
100
AcDbEntity
  8
LAFARGE99--S-2
100
AcDbLine
 10
176.9079073864345
 20
-43.20500076593861
 30
0.0
 11
191.0833660841119
 21
-29.04371044395202
 31
0.0
  0
LINE
  5
D957
330
D94C
100
AcDbEntity
  8
LAFARGE99--S-2
100
AcDbLine
 10
167.0662552349461
 20
-44.55577426923446
 30
0.0
 11
179.4742607808359
 21
-32.16017052902123
 31
0.0
  0
LINE
  5
D958
330
D94C
100
AcDbEntity
  8
LAFARGE99--S-2
100
AcDbLine
 10
157.9956203790978
 20
-45.13630110893416
 30
0.0
 11
169.0976143973528
 21
-34.04540353739879
 31
0.0
  0
LINE
  5
D959
330
D94C
100
AcDbEntity
  8
LAFARGE99--S-2
100
AcDbLine
 10
149.5312561673274
 20
-45.11116327226625
 30
0.0
 11
159.7658930711132
 21
-34.88675589147556
 31
0.0
  0
LINE
  5
D95A
330
D94C
100
AcDbEntity
  8
LAFARGE99--S-2
100
AcDbLine
 10
141.5658198733183
 20
-44.58759619645763
 30
0.0
 11
151.2444699803852
 21
-34.91861990339681
 31
0.0
  0
LINE
  5
D95B
330
D94C
100
AcDbEntity
  8
LAFARGE99--S-2
100
AcDbLine
 10
134.0248593164977
 20
-43.63997764710063
 30
0.0
 11
143.0311105348874
 21
-34.64272817980418
 31
0.0
  0
LINE
  5
D95C
330
D94C
100
AcDbEntity
  8
LAFARGE99--S-2
100
AcDbLine
 10
126.8543709038228
 20
-42.32225724062982
 30
0.0
 11
135.6329193110891
 21
-33.55248299542097
 31
0.0
  0
LINE
  5
D95D
330
D94C
100
AcDbEntity
  8
LAFARGE99--S-2
100
AcDbLine
 10
120.0138683266693
 20
-40.67488081958993
 30
0.0
 11
128.3008536573761
 21
-32.396178333482
 31
0.0
  0
LINE
  5
D95E
330
D94C
100
AcDbEntity
  8
LAFARGE99--S-2
100
AcDbLine
 10
107.002139187949
 20
-45.19256281711295
 30
0.0
 11
121.6841448460857
 21
-30.52523182852258
 31
0.0
  0
LINE
  5
D95F
330
D94C
100
AcDbEntity
  8
LAFARGE99--S-2
100
AcDbLine
 10
101.5921237264708
 20
-42.1161290527466
 30
0.0
 11
115.0674360347955
 21
-28.65428532356316
 31
0.0
  0
LINE
  5
D960
330
D94C
100
AcDbEntity
  8
LAFARGE99--S-2
100
AcDbLine
 10
98.48671084348371
 20
-36.73739616093394
 30
0.0
 11
108.998739810577
 21
-26.23587397029508
 31
0.0
  0
LINE
  5
D961
330
D94C
100
AcDbEntity
  8
LAFARGE99--S-2
100
AcDbLine
 10
95.33782463602983
 20
-31.40209314198535
 30
0.0
 11
103.0329978017537
 21
-23.71461130440457
 31
0.0
  0
LINE
  5
D962
330
D94C
100
AcDbEntity
  8
LAFARGE99--S-2
100
AcDbLine
 10
89.8768660466319
 20
-28.37655158786584
 30
0.0
 11
97.3652352541792
 21
-20.89566700783621
 31
0.0
  0
LINE
  5
D963
330
D94C
100
AcDbEntity
  8
LAFARGE99--S-2
100
AcDbLine
 10
84.55008446633497
 20
-25.21696713460972
 30
0.0
 11
91.99196805931137
 21
-17.78252170676387
 31
0.0
  0
LINE
  5
D964
330
D94C
100
AcDbEntity
  8
LAFARGE99--S-2
100
AcDbLine
 10
79.43322054108534
 20
-21.8476748390733
 30
0.0
 11
86.6486217262725
 21
-14.63948544977415
 31
0.0
  0
LINE
  5
D965
330
D94C
100
AcDbEntity
  8
LAFARGE99--S-2
100
AcDbLine
 10
74.52027681804861
 20
-18.2746661596334
 30
0.0
 11
81.82930611863708
 21
-10.97294223626568
 31
0.0
  0
LINE
  5
D966
330
D94C
100
AcDbEntity
  8
LAFARGE99--S-2
100
AcDbLine
 10
69.80680578982878
 20
-14.50238415840113
 30
0.0
 11
77.00999051100166
 21
-7.306399022757204
 31
0.0
  0
LINE
  5
D967
330
D94C
100
AcDbEntity
  8
LAFARGE99--S-2
100
AcDbLine
 10
65.32005627642297
 20
-10.50360725058544
 30
0.0
 11
72.48409690924837
 21
-3.346727078759158
 31
0.0
  0
LINE
  5
D968
330
D94C
100
AcDbEntity
  8
LAFARGE99--S-2
100
AcDbLine
 10
61.06649960300638
 20
-6.271870579101459
 30
0.0
 11
68.19590392824398
 21
0.8504079041383647
 31
0.0
  0
LINE
  5
D969
330
D94C
100
AcDbEntity
  8
LAFARGE99--S-2
100
AcDbLine
 10
56.86829939002859
 20
-1.984832775978929
 30
0.0
 11
63.92272390164476
 21
5.062540835987647
 31
0.0
  0
LINE
  5
D96A
330
D94C
100
AcDbEntity
  8
LAFARGE99--S-2
100
AcDbLine
 10
52.82406009872056
 20
2.45601206482047
 30
0.0
 11
59.89696282059753
 21
9.521845418070824
 31
0.0
  0
LINE
  5
D96B
330
D94C
100
AcDbEntity
  8
LAFARGE99--S-2
100
AcDbLine
 10
48.73178110073036
 20
6.848865214640454
 30
0.0
 11
55.8073533496131
 21
13.91736542670242
 31
0.0
  0
LINE
  5
D96C
330
D94C
100
AcDbEntity
  8
LAFARGE99--S-2
100
AcDbLine
 10
44.00754943517177
 20
10.61039733379425
 30
0.0
 11
51.19999212708376
 21
17.79565117683978
 31
0.0
  0
LINE
  5
D96D
330
D94C
100
AcDbEntity
  8
LAFARGE99--S-2
100
AcDbLine
 10
38.42389637596602
 20
13.51336705126982
 30
0.0
 11
45.95925105257925
 21
21.04119013837385
 31
0.0
  0
LINE
  5
D96E
330
D94C
100
AcDbEntity
  8
LAFARGE99--S-2
100
AcDbLine
 10
31.79375366889053
 20
15.37089308762756
 30
0.0
 11
40.01387847759156
 21
23.58280187884384
 31
0.0
  0
LINE
  5
D96F
330
D94C
100
AcDbEntity
  8
LAFARGE99--S-2
100
AcDbLine
 10
23.60771943237273
 20
15.67408270864484
 30
0.0
 11
33.21467146453324
 21
25.2714325890488
 31
0.0
  0
LINE
  5
D970
330
D94C
100
AcDbEntity
  8
LAFARGE99--S-2
100
AcDbLine
 10
-0.5715724001022409
 20
0.0
 30
0.0
 11
25.24203219112906
 21
25.78780388484302
 31
0.0
  0
LINE
  5
D971
330
D94C
100
AcDbEntity
  8
LAFARGE99--S-2
100
AcDbLine
 10
-6.306050825799275
 20
2.752295100988249
 30
0.0
 11
15.22032360533148
 21
24.25715391370409
 31
0.0
  0
ENDBLK
  5
D975
330
D94C
100
AcDbEntity
  8
0
100
AcDbBlockEnd
  0
BLOCK
  5
DCC3
330
DC90
100
AcDbEntity
  8
0
100
AcDbBlockBegin
  2
A$C6AB6370E
 70
     0
 10
0.0
 20
0.0
 30
0.0
  3
A$C6AB6370E
  1

  0
INSERT
  5
DC91
330
DC90
100
AcDbEntity
  8
LAFARGE99--S-2
100
AcDbBlockReference
  2
A$C5D0D1E02
 10
5.720264388172836
 20
-0.5857864376271209
 30
0.0
  0
LINE
  5
DC92
330
DC90
100
AcDbEntity
  8
0
100
AcDbLine
 10
118.2018166306966
 20
-45.77834925473985
 30
0.0
 11
111.9753193225929
 21
-45.77834925473985
 31
0.0
  0
LINE
  5
DC93
330
DC90
100
AcDbEntity
  8
0
100
AcDbLine
 10
-0.5857864376266662
 20
8.342224156331894
 30
0.0
 11
-0.5857864376266662
 21
1.414213562373106
 31
0.0
  0
LINE
  5
DC94
330
DC90
100
AcDbEntity
  8
0
100
AcDbLine
 10
1.414213562373333
 20
-0.5857864376268936
 30
0.0
 11
10.02631521397234
 21
-0.5857864376268936
 31
0.0
  0
LINE
  5
DC95
330
DC90
100
AcDbEntity
  8
0
100
AcDbLine
 10
210.2018166306966
 20
-45.77834925473985
 30
0.0
 11
203.9753193225929
 21
-45.77834925473985
 31
0.0
  0
LINE
  5
DC96
330
DC90
100
AcDbEntity
  8
0
100
AcDbLine
 10
307.3213429557231
 20
8.799101288206202
 30
0.0
 11
316.020117754536
 21
8.202268369200965
 31
0.0
  0
LINE
  5
DC97
330
DC90
100
AcDbEntity
  8
0
100
AcDbLine
 10
317.0885679766448
 20
10.53119663529128
 30
0.0
 11
317.0885679766448
 21
9.199922902139633
 31
0.0
  0
LINE
  5
DC98
330
DC90
100
AcDbEntity
  8
0
100
AcDbLine
 10
107.6451923036707
 20
-43.27834925473985
 30
0.0
 11
101.3513321264327
 21
-32.37706365202962
 31
0.0
  0
LINE
  5
DC99
330
DC90
100
AcDbEntity
  8
0
100
AcDbLine
 10
123.2028325561095
 20
-42.11633558246353
 30
0.0
 11
122.5319436496188
 21
-43.27834925473985
 31
0.0
  0
LINE
  5
DC9A
330
DC90
100
AcDbEntity
  8
0
100
AcDbLine
 10
199.6451923036707
 20
-43.27834925473985
 30
0.0
 11
198.6355627017974
 21
-41.52961948746974
 31
0.0
  0
LINE
  5
DC9B
330
DC90
100
AcDbEntity
  8
0
100
AcDbLine
 10
221.8850424451846
 20
-30.54240854774662
 30
0.0
 11
214.5319436496188
 21
-43.27834925473985
 31
0.0
  0
LINE
  5
DC9C
330
DC90
100
AcDbEntity
  8
0
100
AcDbLine
 10
291.139779510243
 20
13.16426760927288
 30
0.0
 11
290.8902977943608
 21
12.15804008161399
 31
0.0
  0
LINE
  5
DC9D
330
DC90
100
AcDbEntity
  8
0
100
AcDbLine
 10
303.6675321172554
 20
13.96131324976181
 30
0.0
 11
293.217903279532
 21
14.67827427312227
 31
0.0
  0
LINE
  5
DC9E
330
DC90
100
AcDbEntity
  8
0
100
AcDbLine
 10
289.8512359097162
 20
11.40103674968918
 30
0.0
 11
289.2430822572965
 21
11.44276286951321
 31
0.0
  0
LINE
  5
DC9F
330
DC90
100
AcDbEntity
  8
0
100
AcDbLine
 10
305.4933846734443
 20
12.35019249629886
 30
0.0
 11
305.9519535385816
 21
10.00744185330336
 31
0.0
  0
LINE
  5
DCA0
330
DC90
100
AcDbEntity
  8
0
100
AcDbLine
 10
69.87329019886693
 20
4.221650745260603
 30
0.0
 11
65.08856797664475
 21
9.52165074526033
 31
0.0
  0
LINE
  5
DCA1
330
DC90
100
AcDbEntity
  8
0
100
AcDbLine
 10
16.84565485480698
 20
10.5458190502552
 30
0.0
 11
14.85594434541781
 21
3.120118336860514
 31
0.0
  0
ARC
  5
DCA2
330
DC90
100
AcDbEntity
  8
0
100
AcDbCircle
 10
159.8732901988669
 20
85.47165074513964
 30
0.0
 40
131.2499999999409
100
AcDbArc
 50
254.799243064405
 51
286.1349309500901
  0
ARC
  5
DCA3
330
DC90
100
AcDbEntity
  8
0
100
AcDbCircle
 10
223.6170932527634
 20
-31.54240854775685
 30
0.0
 40
2.000000000014049
100
AcDbArc
 50
118.579488077163
 51
149.9999999998976
  0
ARC
  5
DCA4
330
DC90
100
AcDbEntity
  8
0
100
AcDbCircle
 10
159.8732901988096
 20
85.47165074538247
 30
0.0
 40
131.2500000001441
100
AcDbArc
 50
298.5794880770465
 51
318.6456009685543
  0
ARC
  5
DCA5
330
DC90
100
AcDbEntity
  8
0
100
AcDbCircle
 10
286.6650936493227
 20
-26.13114034621754
 30
0.0
 40
37.66223875618722
100
AcDbArc
 50
86.07502205083871
 51
138.6456009685911
  0
ARC
  5
DCA6
330
DC90
100
AcDbEntity
  8
0
100
AcDbCircle
 10
289.9196861318253
 20
12.39869128262762
 30
0.0
 40
0.9999999999996417
100
AcDbArc
 50
266.0750220508388
 51
346.0750220508665
  0
ARC
  5
DCA7
330
DC90
100
AcDbEntity
  8
0
100
AcDbCircle
 10
293.0810028353142
 20
12.68296520724539
 30
0.0
 40
1.999999999999444
100
AcDbArc
 50
86.07502205083871
 51
166.0750220508665
  0
ARC
  5
DCA8
330
DC90
100
AcDbEntity
  8
0
100
AcDbCircle
 10
303.5306316730387
 20
11.96600418388539
 30
0.0
 40
1.999999999998776
100
AcDbArc
 50
11.07502205081502
 51
86.07502205086561
  0
ARC
  5
DCA9
330
DC90
100
AcDbEntity
  8
0
100
AcDbCircle
 10
307.4240182888864
 20
10.29558308761511
 30
0.0
 40
1.500000000000684
100
AcDbArc
 50
191.0750220508661
 51
266.0750220508388
  0
ARC
  5
DCAA
330
DC90
100
AcDbEntity
  8
0
100
AcDbCircle
 10
316.0885679766447
 20
9.199922902139405
 30
0.0
 40
0.9999999999998685
100
AcDbArc
 50
266.0750220508388
 51
0.0
  0
ARC
  5
DCAB
330
DC90
100
AcDbEntity
  8
0
100
AcDbCircle
 10
314.0885679766395
 20
10.53119663529082
 30
0.0
 40
3.000000000005339
100
AcDbArc
 50
0.0
 51
44.44664494409172
  0
ARC
  5
DCAC
330
DC90
100
AcDbEntity
  8
0
100
AcDbCircle
 10
286.2463571578132
 20
-16.77834925474008
 30
0.0
 40
41.99999999999993
100
AcDbArc
 50
44.44664494413787
 51
141.4181169786251
  0
ARC
  5
DCAD
330
DC90
100
AcDbEntity
  8
0
100
AcDbCircle
 10
32.24635715781324
 20
-16.77834925473939
 30
0.0
 40
41.99999999999953
100
AcDbArc
 50
42.17330735897866
 51
139.900476599191
  0
ARC
  5
DCAE
330
DC90
100
AcDbEntity
  8
0
100
AcDbCircle
 10
2.414213562365148
 20
8.342224156332349
 30
0.0
 40
2.999999999995765
100
AcDbArc
 50
139.9004765990977
 51
180.0
  0
ARC
  5
DCAF
330
DC90
100
AcDbEntity
  8
0
100
AcDbCircle
 10
1.414213562373333
 20
1.414213562373106
 30
0.0
 40
1.999999999999864
100
AcDbArc
 50
180.0
 51
270.0
  0
ARC
  5
DCB0
330
DC90
100
AcDbEntity
  8
0
100
AcDbCircle
 10
10.02631521397234
 20
4.414213562372651
 30
0.0
 40
4.99999999999976
100
AcDbArc
 50
270.0
 51
345.0000000000056
  0
ARC
  5
DCB1
330
DC90
100
AcDbEntity
  8
0
100
AcDbCircle
 10
18.77750650738744
 20
10.02818096004898
 30
0.0
 40
2.000000000002766
100
AcDbArc
 50
116.6770864475347
 51
164.9999999999803
  0
ARC
  5
DCB2
330
DC90
100
AcDbEntity
  8
0
100
AcDbCircle
 10
159.8732901987064
 20
85.47165074477675
 30
0.0
 40
131.2499999996142
100
AcDbArc
 50
227.8223189038383
 51
243.1158696550684
  0
ARC
  5
DCB3
330
DC90
100
AcDbEntity
  8
0
100
AcDbCircle
 10
99.6192813188718
 20
-33.37706365202052
 30
0.0
 40
1.999999999988731
100
AcDbArc
 50
29.99999999988098
 51
63.1158696551849
  0
ARC
  5
DCB4
330
DC90
100
AcDbEntity
  8
0
100
AcDbCircle
 10
111.9753193225924
 20
-40.77834925474076
 30
0.0
 40
4.999999999999383
100
AcDbArc
 50
209.999999999986
 51
270.0
  0
ARC
  5
DCB5
330
DC90
100
AcDbEntity
  8
0
100
AcDbCircle
 10
118.201816630697
 20
-40.77834925474076
 30
0.0
 40
4.999999999999382
100
AcDbArc
 50
270.0
 51
330.000000000014
  0
ARC
  5
DCB6
330
DC90
100
AcDbEntity
  8
0
100
AcDbCircle
 10
124.9348833636786
 20
-43.11633558246353
 30
0.0
 40
2.000000000000105
100
AcDbArc
 50
74.79924306440496
 51
150.0000000000027
  0
ARC
  5
DCB7
330
DC90
100
AcDbEntity
  8
0
100
AcDbCircle
 10
196.9035118942288
 20
-42.52961948746997
 30
0.0
 40
2.000000000000165
100
AcDbArc
 50
29.99999999999729
 51
106.134930950065
  0
ARC
  5
DCB8
330
DC90
100
AcDbEntity
  8
0
100
AcDbCircle
 10
203.9753193225924
 20
-40.77834925474213
 30
0.0
 40
4.999999999998555
100
AcDbArc
 50
209.999999999986
 51
270.0
  0
ARC
  5
DCB9
330
DC90
100
AcDbEntity
  8
0
100
AcDbCircle
 10
210.2018166306968
 20
-40.77834925474076
 30
0.0
 40
4.999999999999472
100
AcDbArc
 50
270.0
 51
330.000000000014
  0
SPLINE
  5
DCBA
330
DC90
100
AcDbEntity
  8
0
100
AcDbSpline
210
0.0
220
0.0
230
1.0
 70
    12
 71
     3
 72
    11
 73
     7
 74
     0
 42
0.0000000001
 43
0.0000000001
 40
0.0
 40
0.0
 40
0.0
 40
0.0
 40
0.638492864645165
 40
0.638492864645165
 40
0.638492864645165
 40
1.0
 40
1.0
 40
1.0
 40
1.0
 10
253.4142135623734
 20
9.414213562373108
 30
0.0
 41
0.5406621707333233
 10
224.1663342109746
 20
-27.24774202525649
 30
0.0
 41
0.4864459430888923
 10
179.9803273830937
 20
-42.96824566444411
 30
0.0
 41
0.4864459430888923
 10
134.1487742942577
 20
-33.01806096623705
 30
0.0
 41
0.5406621707333233
 10
109.1499045635169
 20
-27.59072206316409
 30
0.0
 41
0.5233345071101633
 10
87.01535372728722
 20
-14.76648116314391
 30
0.0
 41
0.5233345071101633
 10
69.87329019886601
 20
4.221650745260605
 30
0.0
 41
0.5406621707333233
  0
SPLINE
  5
DCBB
330
DC90
100
AcDbEntity
  8
0
100
AcDbSpline
210
0.0
220
0.0
230
1.0
 70
     8
 71
     3
 72
     8
 73
     4
 74
     0
 42
0.0000000001
 43
0.0000000001
 40
0.0
 40
0.0
 40
0.0
 40
0.0
 40
1.0
 40
1.0
 40
1.0
 40
1.0
 10
65.08856797664475
 20
9.52165074526033
 30
0.0
 10
64.51717873711004
 20
10.15457421059113
 30
0.0
 10
63.94576418164025
 20
10.78747508943161
 30
0.0
 10
63.37329019886647
 20
11.41941731386919
 30
0.0
  0
SPLINE
  5
DCBC
330
DC90
100
AcDbEntity
  8
0
100
AcDbSpline
210
0.0
220
0.0
230
1.0
 70
     8
 71
     3
 72
     8
 73
     4
 74
     0
 42
0.0000000001
 43
0.0000000001
 40
0.0
 40
0.0
 40
0.0
 40
0.0
 40
1.0
 40
1.0
 40
1.0
 40
1.0
 10
55.96211566528245
 20
4.705663368962177
 30
0.0
 10
61.07875032408628
 20
-0.9424841193365409
 30
0.0
 10
66.10622492686889
 20
-6.681782878704325
 30
0.0
 10
71.74784458785416
 20
-11.79328813746565
 30
0.0
  0
SPLINE
  5
DCBD
330
DC90
100
AcDbEntity
  8
0
100
AcDbSpline
210
0.0
220
0.0
230
1.0
 70
    24
 71
     3
 72
     8
 73
     4
 74
     0
 42
0.0000000001
 43
0.0000000001
 40
0.0
 40
0.0
 40
0.0
 40
0.0
 40
0.0000093381330152
 40
0.0000093381330152
 40
0.0000093381330152
 40
0.0000093381330152
 10
32.24635715770864
 20
25.22165074525992
 30
0.0
 10
32.24646378678426
 20
25.22165074525992
 30
0.0
 10
32.24657041584578
 20
25.22165074484815
 30
0.0
 10
32.2466770448932
 20
25.2216507440246
 30
0.0
  0
SPLINE
  5
DCBE
330
DC90
100
AcDbEntity
  8
0
100
AcDbSpline
210
0.0
220
0.0
230
1.0
 70
    24
 71
     3
 72
     8
 73
     4
 74
     0
 42
0.0000000001
 43
0.0000000001
 40
0.0
 40
0.0
 40
0.0
 40
0.0
 40
0.0000093329661003
 40
0.0000093329661003
 40
0.0000093329661003
 40
0.0000093329661003
 10
32.24635715770864
 20
25.22165074525992
 30
0.0
 10
32.24646372778489
 20
25.22165074525992
 30
0.0
 10
32.24657029784703
 20
25.2216507448486
 30
0.0
 10
32.24667686789508
 20
25.22165074402597
 30
0.0
  0
LWPOLYLINE
  5
DCBF
330
DC90
100
AcDbEntity
  8
0
100
AcDbPolyline
 90
        2
 70
     0
 43
0.0
 10
55.96211566528109
 20
4.705663368963314
 42
0.337041365288251
 10
17.87958313068702
 20
11.81528297436784
  0
ENDBLK
  5
DCC4
330
DC90
100
AcDbEntity
  8
0
100
AcDbBlockEnd
  0
BLOCK
  5
DD55
330
DCFB
100
AcDbEntity
  8
0
100
AcDbBlockBegin
  2
A$C74004F54
 70
     0
 10
0.0
 20
0.0
 30
0.0
  3
A$C74004F54
  1

  0
LINE
  5
FA7A
330
DCFB
100
AcDbEntity
  8
LAFARGE99--S-2
100
AcDbLine
 10
-4.359031000156846
 20
9.16809028255102
 30
0.0
 11
-0.7867067255936036
 21
12.73684401781156
 31
0.0
  0
LINE
  5
FA7B
330
DCFB
100
AcDbEntity
  8
LAFARGE99--S-2
100
AcDbLine
 10
-4.849992949556963
 20
0.1965771361942643
 30
0.0
 11
3.131460684333205
 21
8.170053304518205
 31
0.0
  0
LINE
  5
FA7C
330
DCFB
100
AcDbEntity
  8
LAFARGE99--S-2
100
AcDbLine
 10
3.442760437610559
 20
0.0
 30
0.0
 11
9.467937808374699
 21
6.01915520397506
 31
0.0
  0
LINE
  5
FA7D
330
DCFB
100
AcDbEntity
  8
LAFARGE99--S-2
100
AcDbLine
 10
9.899488448571219
 20
-2.030767404426114
 30
0.0
 11
17.41187691556342
 21
5.474112427791169
 31
0.0
  0
LINE
  5
FA7E
330
DCFB
100
AcDbEntity
  8
LAFARGE99--S-2
100
AcDbLine
 10
16.19738843397772
 20
-4.220204085741443
 30
0.0
 11
25.96456029715364
 21
5.537205485903314
 31
0.0
  0
LINE
  5
FA7F
330
DCFB
100
AcDbEntity
  8
LAFARGE99--S-2
100
AcDbLine
 10
21.85487763990341
 20
-7.049411455750487
 30
0.0
 11
30.00513213996328
 21
1.0926968622216
 31
0.0
  0
LINE
  5
FA80
330
DCFB
100
AcDbEntity
  8
LAFARGE99--S-2
100
AcDbLine
 10
26.94920809888277
 20
-10.44121469535071
 30
0.0
 11
34.21494454509957
 21
-3.182740355136502
 31
0.0
  0
LINE
  5
FA81
330
DCFB
100
AcDbEntity
  8
LAFARGE99--S-2
100
AcDbLine
 10
31.54571732420186
 20
-14.33034159612225
 30
0.0
 11
38.63503269257217
 21
-7.248112000824676
 31
0.0
  0
LINE
  5
FA82
330
DCFB
100
AcDbEntity
  8
LAFARGE99--S-2
100
AcDbLine
 10
36.1473657392421
 20
-18.21433444379408
 30
0.0
 11
43.26672618448333
 21
-11.10208980168954
 31
0.0
  0
LINE
  5
FA83
330
DCFB
100
AcDbEntity
  8
LAFARGE99--S-2
100
AcDbLine
 10
40.94659071014485
 20
-21.90094821343769
 30
0.0
 11
48.11296059005986
 21
-14.7417411226047
 31
0.0
  0
LINE
  5
FA84
330
DCFB
100
AcDbEntity
  8
LAFARGE99--S-2
100
AcDbLine
 10
45.94703144803633
 20
-25.38654733131807
 30
0.0
 11
53.17838989763186
 21
-18.16241662690163
 31
0.0
  0
LINE
  5
FA85
330
DCFB
100
AcDbEntity
  8
LAFARGE99--S-2
100
AcDbLine
 10
51.15378304363594
 20
-28.66604179926117
 30
0.0
 11
58.46957194001561
 21
-21.35756503632024
 31
0.0
  0
LINE
  5
FA86
330
DCFB
100
AcDbEntity
  8
LAFARGE99--S-2
100
AcDbLine
 10
56.5735759902027
 20
-31.73270785113891
 30
0.0
 11
63.99524476159331
 21
-24.31845704015723
 31
0.0
  0
LINE
  5
FA87
330
DCFB
100
AcDbEntity
  8
LAFARGE99--S-2
100
AcDbLine
 10
61.05114337841929
 20
-35.74065770660695
 30
0.0
 11
69.76672283042626
 21
-27.03378947916553
 31
0.0
  0
LINE
  5
FA88
330
DCFB
100
AcDbEntity
  8
LAFARGE99--S-2
100
AcDbLine
 10
64.15655626140642
 20
-41.11939059841961
 30
0.0
 11
75.79845873631803
 21
-29.48912420890975
 31
0.0
  0
LINE
  5
FA89
330
DCFB
100
AcDbEntity
  8
LAFARGE99--S-2
100
AcDbLine
 10
67.34822396788809
 20
-46.41195487846289
 30
0.0
 11
82.10884303305148
 21
-31.66608905697194
 31
0.0
  0
LINE
  5
FA8A
330
DCFB
100
AcDbEntity
  8
LAFARGE99--S-2
100
AcDbLine
 10
74.99886758077877
 20
-47.25
 30
0.0
 11
88.72136060704429
 21
-33.5412226100857
 31
0.0
  0
LINE
  5
FA8B
330
DCFB
100
AcDbEntity
  8
LAFARGE99--S-2
100
AcDbLine
 10
87.25961323273418
 20
-43.48255088099676
 30
0.0
 11
95.66662726683649
 21
-35.08393966022231
 31
0.0
  0
LINE
  5
FA8C
330
DCFB
100
AcDbEntity
  8
LAFARGE99--S-2
100
AcDbLine
 10
94.2384342909836
 20
-44.99174707030852
 30
0.0
 11
102.9875282241758
 21
-36.25139785941724
 31
0.0
  0
LINE
  5
FA8D
330
DCFB
100
AcDbEntity
  8
LAFARGE99--S-2
100
AcDbLine
 10
101.5633903351906
 20
-46.15515423569649
 30
0.0
 11
110.7392944902617
 21
-36.98842139988528
 31
0.0
  0
LINE
  5
FA8E
330
DCFB
100
AcDbEntity
  8
LAFARGE99--S-2
100
AcDbLine
 10
109.2801774179086
 20
-46.92712199782727
 30
0.0
 11
118.9980198528114
 21
-37.21899254967548
 31
0.0
  0
LINE
  5
FA8F
330
DCFB
100
AcDbEntity
  8
LAFARGE99--S-2
100
AcDbLine
 10
117.4505510620638
 20
-47.2459565584395
 30
0.0
 11
127.874763731005
 21
-36.83216289353368
 31
0.0
  0
LINE
  5
FA90
330
DCFB
100
AcDbEntity
  8
LAFARGE99--S-2
100
AcDbLine
 10
126.1611654746848
 20
-47.02509032141438
 30
0.0
 11
137.5427240992314
 21
-35.65490756850454
 31
0.0
  0
LINE
  5
FA91
330
DCFB
100
AcDbEntity
  8
LAFARGE99--S-2
100
AcDbLine
 10
135.5400336189104
 20
-46.13663827261189
 30
0.0
 11
148.3002836663522
 21
-33.38914209934342
 31
0.0
  0
LINE
  5
FA92
330
DCFB
100
AcDbEntity
  8
LAFARGE99--S-2
100
AcDbLine
 10
145.7906481885475
 20
-44.37731110924096
 30
0.0
 11
160.7540784814618
 21
-29.42883676988868
 31
0.0
  0
LINE
  5
FA93
330
DCFB
100
AcDbEntity
  8
LAFARGE99--S-2
100
AcDbLine
 10
156.6149220007969
 20
-42.04489807586106
 30
0.0
 11
176.6430938052874
 21
-22.03674443576119
 31
0.0
  0
LINE
  5
FA94
330
DCFB
100
AcDbEntity
  8
LAFARGE99--S-2
100
AcDbLine
 10
160.058092796711
 20
-47.08621064389354
 30
0.0
 11
226.9574840636269
 21
19.74631465916536
 31
0.0
  0
LINE
  5
FA95
330
DCFB
100
AcDbEntity
  8
LAFARGE99--S-2
100
AcDbLine
 10
188.8849624160098
 20
-26.76919540397103
 30
0.0
 11
239.051577981988
 21
23.34727861303736
 31
0.0
  0
LINE
  5
FA96
330
DCFB
100
AcDbEntity
  8
LAFARGE99--S-2
100
AcDbLine
 10
168.3836667681507
 20
-47.25
 30
0.0
 11
176.2101998220503
 21
-39.43128956849523
 31
0.0
  0
LINE
  5
FA97
330
DCFB
100
AcDbEntity
  8
LAFARGE99--S-2
100
AcDbLine
 10
231.7110921904953
 20
7.533087725949826
 30
0.0
 11
247.837977378324
 21
23.64385408666112
 31
0.0
  0
LINE
  5
FA98
330
DCFB
100
AcDbEntity
  8
LAFARGE99--S-2
100
AcDbLine
 10
242.6370887378123
 20
9.967121822489389
 30
0.0
 11
255.1507104468924
 21
22.46823616250276
 31
0.0
  0
LINE
  5
FA99
330
DCFB
100
AcDbEntity
  8
LAFARGE99--S-2
100
AcDbLine
 10
254.2058687051599
 20
13.04329687681684
 30
0.0
 11
261.486214634987
 21
20.31636609846191
 31
0.0
  0
LINE
  5
FA9A
330
DCFB
100
AcDbEntity
  8
LAFARGE99--S-2
100
AcDbLine
 10
262.1498078123486
 20
12.49825410063295
 30
0.0
 11
267.0575120687908
 21
17.40105310503622
 31
0.0
  0
LINE
  5
FA9B
330
DCFB
100
AcDbEntity
  8
LAFARGE99--S-2
100
AcDbLine
 10
265.5662106340287
 20
7.430200312966462
 30
0.0
 11
271.9678272948638
 21
13.82541855581576
 31
0.0
  0
LINE
  5
FA9C
330
DCFB
100
AcDbEntity
  8
LAFARGE99--S-2
100
AcDbLine
 10
273.4372118543906
 20
6.812292551397604
 30
0.0
 11
275.6960507482215
 21
9.068873735001488
 31
0.0
  0
LINE
  5
FA9D
330
DCFB
100
AcDbEntity
  8
0
  6
Continuous
370
    15
100
AcDbLine
 10
169.9640144421364
 20
-47.25
 30
0.0
 11
160.8507657880845
 21
-47.25
 31
0.0
  0
LINE
  5
FA9E
330
DCFB
100
AcDbEntity
  8
0
  6
Continuous
370
    15
100
AcDbLine
 10
266.0362466830252
 20
7.320081262893609
 30
0.0
 11
274.6276150275964
 21
6.730617623940815
 31
0.0
  0
LINE
  5
FA9F
330
DCFB
100
AcDbEntity
  8
0
  6
Continuous
370
    15
100
AcDbLine
 10
275.6960652497053
 20
9.059545890031131
 30
0.0
 11
275.6960652497053
 21
7.728272156879484
 31
0.0
  0
LINE
  5
FAA0
330
DCFB
100
AcDbEntity
  8
0
  6
Continuous
370
    15
100
AcDbLine
 10
78.54136471132597
 20
-47.25
 30
0.0
 11
69.42811605727411
 21
-47.25
 31
0.0
  0
LINE
  5
FAA1
330
DCFB
100
AcDbEntity
  8
0
  6
Continuous
370
    15
100
AcDbLine
 10
4.452583128691912
 20
0.0
 30
0.0
 11
-4.452583128691912
 21
0.0
 31
0.0
  0
LINE
  5
FAA2
330
DCFB
100
AcDbEntity
  8
0
  6
Continuous
370
    15
100
AcDbLine
 10
-4.167034306077312
 20
11.96642119013063
 30
0.0
 11
-4.951410395161474
 21
0.5342251110541838
 31
0.0
  0
LINE
  5
FAA3
330
DCFB
100
AcDbEntity
  8
0
  6
Continuous
370
    15
100
AcDbLine
 10
1.513200573180938
 20
12.57904473937105
 30
0.0
 11
-3.100929551029821
 21
12.8956255009607
 31
0.0
  0
LINE
  5
FAA4
330
DCFB
100
AcDbEntity
  8
0
  6
Continuous
370
    15
100
AcDbLine
 10
20.1821176726412
 20
6.026966488562266
 30
0.0
 11
20.44282942145946
 21
6.787361327804774
 31
0.0
  0
LINE
  5
FAA5
330
DCFB
100
AcDbEntity
  8
0
  6
Continuous
370
    15
100
AcDbLine
 10
5.003005342495953
 20
6.325499343052342
 30
0.0
 11
19.16772339257249
 21
5.353641786529806
 31
0.0
  0
LINE
  5
FAA6
330
DCFB
100
AcDbEntity
  8
0
  6
Continuous
370
     0
100
AcDbLine
 10
249.7472767833026
 20
11.69261686401387
 30
0.0
 11
249.4977950674202
 21
10.68638933635384
 31
0.0
  0
LINE
  5
FAA7
330
DCFB
100
AcDbEntity
  8
0
  6
Continuous
370
    15
100
AcDbLine
 10
264.2539797286533
 20
12.35388445135004
 30
0.0
 11
251.8254005525916
 21
13.20662352786348
 31
0.0
  0
LINE
  5
FAA8
330
DCFB
100
AcDbEntity
  8
0
  6
Continuous
370
    15
100
AcDbLine
 10
66.83003984592096
 20
-45.75
 30
0.0
 11
59.95882939949343
 21
-33.84871439728977
 31
0.0
  0
LINE
  5
FAA9
330
DCFB
100
AcDbEntity
  8
0
  6
Continuous
370
    15
100
AcDbLine
 10
82.19654474996287
 20
-42.91904246226954
 30
0.0
 11
80.27341551889504
 21
-46.25
 31
0.0
  0
LINE
  5
FAAA
330
DCFB
100
AcDbEntity
  8
0
  6
Continuous
370
    15
100
AcDbLine
 10
159.1187149805155
 20
-46.25
 30
0.0
 11
156.8502755966078
 21
-42.32094773318158
 31
0.0
  0
LINE
  5
FAAB
330
DCFB
100
AcDbEntity
  8
0
  6
Continuous
370
    15
100
AcDbLine
 10
28.48078747192722
 20
2.750000000000227
 30
0.0
 11
24.23754369670087
 21
7.45020848948161
 31
0.0
  0
LINE
  5
FAAC
330
DCFB
100
AcDbEntity
  8
0
  6
Continuous
370
    15
100
AcDbLine
 10
22.88990805844401
 20
8.105311369792161
 30
0.0
 11
22.4716179815905
 21
8.134010731867192
 31
0.0
  0
LINE
  5
FAAD
330
DCFB
100
AcDbEntity
  8
0
  6
Continuous
370
    15
100
AcDbLine
 10
3.177152786307487
 20
7.936620096513706
 30
0.0
 11
2.426126851275512
 21
11.77348436263992
 31
0.0
  0
LINE
  5
FAAE
330
DCFB
100
AcDbEntity
  8
0
  6
Continuous
370
    15
100
AcDbLine
 10
5.570611536195656
 20
-0.936482006101869
 30
0.0
 11
5.318608532476218
 21
-0.5
 31
0.0
  0
LINE
  5
FAAF
330
DCFB
100
AcDbEntity
  8
0
  6
Continuous
370
    15
100
AcDbLine
 10
180.6334658571206
 20
-31.76996806035982
 30
0.0
 11
172.5620906534898
 21
-45.75
 31
0.0
  0
LINE
  5
FAB0
330
DCFB
100
AcDbEntity
  8
0
  6
Continuous
370
    15
100
AcDbLine
 10
248.4587331827756
 20
9.929386004429034
 30
0.0
 11
247.8505795303572
 21
9.971112124253068
 31
0.0
  0
LINE
  5
FAB1
330
DCFB
100
AcDbEntity
  8
0
  6
Continuous
370
    15
100
AcDbLine
 10
264.2539797286533
 20
12.35388445135004
 30
0.0
 11
264.6473457533943
 21
8.657817189065099
 31
0.0
  0
ARC
  5
FAB2
330
DCFB
100
AcDbEntity
  8
0
  6
Continuous
370
    15
100
AcDbCircle
 10
118.4807874719274
 20
83.99999999999636
 30
0.0
 40
131.2499999999984
100
AcDbArc
 50
254.4658543920615
 51
286.4739905297787
  0
ARC
  5
FAB3
330
DCFB
100
AcDbEntity
  8
0
  6
Continuous
370
    15
100
AcDbCircle
 10
118.2155862770344
 20
82.778456580294
 30
0.0
 40
120.000000000001
100
AcDbArc
 50
257.7509800837748
 51
321.4181169786332
  0
ARC
  5
FAB4
330
DCFB
100
AcDbEntity
  8
0
  6
Continuous
370
    15
100
AcDbCircle
 10
118.4807874719265
 20
83.99999999999341
 30
0.0
 40
121.2499999999961
100
AcDbArc
 50
222.0750220508378
 51
257.7509800837593
  0
ARC
  5
FAB5
330
DCFB
100
AcDbEntity
  8
0
  6
Continuous
370
    15
100
AcDbCircle
 10
22.75300761422636
 20
6.110002303914825
 30
0.0
 40
2.00000000000021
100
AcDbArc
 50
42.07502205083786
 51
86.07502205083871
  0
ARC
  5
FAB6
330
DCFB
100
AcDbEntity
  8
0
  6
Continuous
370
    15
100
AcDbCircle
 10
22.33471753737308
 20
6.138701665989174
 30
0.0
 40
2.000000000000419
100
AcDbArc
 50
86.07502205085172
 51
161.0750220508385
  0
ARC
  5
FAB7
330
DCFB
100
AcDbEntity
  8
0
  6
Continuous
370
    15
100
AcDbCircle
 10
19.23617361468405
 20
6.351296319468019
 30
0.0
 40
0.9999999999995829
100
AcDbArc
 50
266.0750220506697
 51
341.0750220509498
  0
ARC
  5
FAB8
330
DCFB
100
AcDbEntity
  8
0
  6
Continuous
370
    15
100
AcDbCircle
 10
5.139905786713597
 20
8.320808408930133
 30
0.0
 40
2.000000000000058
100
AcDbArc
 50
191.0750220508942
 51
266.0750220508388
  0
ARC
  5
FAB9
330
DCFB
100
AcDbEntity
  8
0
  6
Continuous
370
    15
100
AcDbCircle
 10
1.444750351071888
 20
11.58139020643216
 30
0.0
 40
1.000000000000419
100
AcDbArc
 50
11.07502205085337
 51
86.07502205082573
  0
ARC
  5
FABA
330
DCFB
100
AcDbEntity
  8
0
  6
Continuous
370
    15
100
AcDbCircle
 10
-3.169379773138643
 20
11.89797096802181
 30
0.0
 40
0.9999999999999973
100
AcDbArc
 50
86.07502205083871
 51
176.0750220508387
  0
ARC
  5
FABB
330
DCFB
100
AcDbEntity
  8
0
  6
Continuous
370
    15
100
AcDbCircle
 10
-4.452583128691912
 20
0.5
 30
0.0
 40
0.4999999999999402
100
AcDbArc
 50
176.0750220508387
 51
270.0
  0
ARC
  5
FABC
330
DCFB
100
AcDbEntity
  8
0
  6
Continuous
370
    15
100
AcDbCircle
 10
4.452583128691458
 20
-1.000000000002273
 30
0.0
 40
1.00000000000237
100
AcDbArc
 50
30.00000000010232
 51
90.0
  0
ARC
  5
FABD
330
DCFB
100
AcDbEntity
  8
0
  6
Continuous
370
    15
100
AcDbCircle
 10
5.83041915733429
 20
-0.7864820061076899
 30
0.0
 40
0.3000000000000961
100
AcDbArc
 50
209.9999999987369
 51
259.4451143725117
  0
ARC
  5
FABE
330
DCFB
100
AcDbEntity
  8
0
  6
Continuous
370
    15
100
AcDbCircle
 10
-3.446107999868445
 20
-50.57193837714862
 30
0.0
 40
50.34233033907056
100
AcDbArc
 50
47.82231890391189
 51
79.44511437249895
  0
ARC
  5
FABF
330
DCFB
100
AcDbEntity
  8
0
  6
Continuous
370
    15
100
AcDbCircle
 10
118.4807874720336
 20
84.0000000003231
 30
0.0
 40
131.2500000003595
100
AcDbArc
 50
227.8223189039855
 51
243.1158696551267
  0
ARC
  5
FAC0
330
DCFB
100
AcDbEntity
  8
0
  6
Continuous
370
    15
100
AcDbCircle
 10
58.22677859192435
 20
-34.84871439729
 30
0.0
 40
2.000000000000313
100
AcDbArc
 50
29.99999999999729
 51
63.1158696550975
  0
ARC
  5
FAC1
330
DCFB
100
AcDbEntity
  8
0
  6
Continuous
370
    15
100
AcDbCircle
 10
69.42811605727456
 20
-44.24999999999863
 30
0.0
 40
3.000000000001588
100
AcDbArc
 50
210.0000000000151
 51
270.0
  0
ARC
  5
FAC2
330
DCFB
100
AcDbEntity
  8
0
  6
Continuous
370
    15
100
AcDbCircle
 10
78.54136471132597
 20
-45.25000000000045
 30
0.0
 40
1.999999999999753
100
AcDbArc
 50
270.0
 51
330.000000000014
  0
ARC
  5
FAC3
330
DCFB
100
AcDbEntity
  8
0
  6
Continuous
370
    15
100
AcDbCircle
 10
83.06257015374649
 20
-43.4190424622725
 30
0.0
 40
1.000000000001093
100
AcDbArc
 50
74.46585439207407
 51
149.999999999833
  0
ARC
  5
FAC4
330
DCFB
100
AcDbEntity
  8
0
  6
Continuous
370
    15
100
AcDbCircle
 10
155.9842501928235
 20
-42.82094773318158
 30
0.0
 40
1.000000000000137
100
AcDbArc
 50
30.00000000001508
 51
106.4739905297662
  0
ARC
  5
FAC5
330
DCFB
100
AcDbEntity
  8
0
  6
Continuous
370
    15
100
AcDbCircle
 10
160.850765788085
 20
-45.24999999999749
 30
0.0
 40
2.000000000002793
100
AcDbArc
 50
210.000000000062
 51
270.0
  0
ARC
  5
FAC6
330
DCFB
100
AcDbEntity
  8
0
  6
Continuous
370
    15
100
AcDbCircle
 10
169.9640144421364
 20
-44.25000000000046
 30
0.0
 40
2.999999999999776
100
AcDbArc
 50
270.0
 51
330.000000000014
  0
ARC
  5
FAC7
330
DCFB
100
AcDbEntity
  8
0
  6
Continuous
370
     0
100
AcDbCircle
 10
181.4994912609281
 20
-32.26996806038278
 30
0.0
 40
1.000000000032847
100
AcDbArc
 50
118.4578378813486
 51
149.9999999995179
  0
ARC
  5
FAC8
330
DCFB
100
AcDbEntity
  8
0
  6
Continuous
370
    15
100
AcDbCircle
 10
118.4807874719477
 20
83.99999999997318
 30
0.0
 40
131.2499999999669
100
AcDbArc
 50
298.4578378808588
 51
318.6456009685912
  0
ARC
  5
FAC9
330
DCFB
100
AcDbEntity
  8
0
  6
Continuous
370
    15
100
AcDbCircle
 10
245.2725909223832
 20
-27.60279109147541
 30
0.0
 40
37.66223875618591
100
AcDbArc
 50
86.07502205083871
 51
138.6456009685911
  0
ARC
  5
FACA
330
DCFB
100
AcDbEntity
  8
0
  6
Continuous
370
    15
100
AcDbCircle
 10
248.5271834048847
 20
10.92704053736747
 30
0.0
 40
0.9999999999996417
100
AcDbArc
 50
266.0750220508388
 51
346.0750220508697
  0
ARC
  5
FACB
330
DCFB
100
AcDbEntity
  8
0
  6
Continuous
370
    15
100
AcDbCircle
 10
251.6885001083738
 20
11.2113144619866
 30
0.0
 40
1.999999999999444
100
AcDbArc
 50
86.07502205083871
 51
166.0750220508696
  0
ARC
  5
FACC
330
DCFB
100
AcDbEntity
  8
0
  6
Continuous
370
    15
100
AcDbCircle
 10
266.1389220161877
 20
8.816563062300929
 30
0.0
 40
1.499999999999064
100
AcDbArc
 50
186.0750220508231
 51
266.0750220508656
  0
ARC
  5
FACD
330
DCFB
100
AcDbEntity
  8
0
  6
Continuous
370
    15
100
AcDbCircle
 10
274.6960652497046
 20
7.728272156880393
 30
0.0
 40
1.000000000001313
100
AcDbArc
 50
266.0750220508916
 51
0.0
  0
ARC
  5
FACE
330
DCFB
100
AcDbEntity
  8
0
  6
Continuous
370
    15
100
AcDbCircle
 10
272.6960652497
 20
9.059545890030676
 30
0.0
 40
3.000000000005339
100
AcDbArc
 50
0.0
 51
44.4466449440826
  0
ARC
  5
FACF
330
DCFB
100
AcDbEntity
  8
0
  6
Continuous
370
    15
100
AcDbCircle
 10
244.8538544308738
 20
-18.25000000000045
 30
0.0
 40
42.00000000000001
100
AcDbArc
 50
44.44664494413787
 51
141.4181169786332
  0
ARC
  5
FAD0
330
DCFB
100
AcDbEntity
  8
0
  6
Continuous
370
     0
100
AcDbCircle
 10
18.03597960382012
 20
-6.151385977498193
 30
0.0
 40
0.9999999999025266
100
AcDbArc
 50
47.82231890107082
 51
64.19126685457245
  0
ENDBLK
  5
DD56
330
DCFB
100
AcDbEntity
  8
0
100
AcDbBlockEnd
  0
BLOCK
  5
DE72
330
DE4E
100
AcDbEntity
  8
0
100
AcDbBlockBegin
  2
A$C102C25F8
 70
     0
 10
0.0
 20
0.0
 30
0.0
  3
A$C102C25F8
  1

  0
LINE
  5
FBA2
330
DE4E
100
AcDbEntity
  8
LAFARGE99--S-2
100
AcDbLine
 10
-53.38035133406811
 20
56.41809028255124
 30
0.0
 11
-49.80802705950487
 21
59.98684401781179
 31
0.0
  0
LINE
  5
FBA3
330
DE4E
100
AcDbEntity
  8
LAFARGE99--S-2
100
AcDbLine
 10
-53.87131328346822
 20
47.44657713619448
 30
0.0
 11
-45.88985964957806
 21
55.42005330451843
 31
0.0
  0
LINE
  5
FBA4
330
DE4E
100
AcDbEntity
  8
LAFARGE99--S-2
100
AcDbLine
 10
-45.5785598963007
 20
47.25000000000022
 30
0.0
 11
-39.55338252553656
 21
53.26915520397529
 31
0.0
  0
LINE
  5
FBA5
330
DE4E
100
AcDbEntity
  8
LAFARGE99--S-2
100
AcDbLine
 10
-39.12183188534005
 20
45.21923259557411
 30
0.0
 11
-31.60944341834784
 21
52.72411242779139
 31
0.0
  0
LINE
  5
FBA6
330
DE4E
100
AcDbEntity
  8
LAFARGE99--S-2
100
AcDbLine
 10
-32.82393189993354
 20
43.02979591425878
 30
0.0
 11
-23.05676003675762
 21
52.78720548590354
 31
0.0
  0
LINE
  5
FBA7
330
DE4E
100
AcDbEntity
  8
LAFARGE99--S-2
100
AcDbLine
 10
-27.16644269400786
 20
40.20058854424974
 30
0.0
 11
-19.01618819394798
 21
48.34269686222183
 31
0.0
  0
LINE
  5
FBA8
330
DE4E
100
AcDbEntity
  8
LAFARGE99--S-2
100
AcDbLine
 10
-22.0721122350285
 20
36.80878530464952
 30
0.0
 11
-14.80637578881169
 21
44.06725964486372
 31
0.0
  0
LINE
  5
FBA9
330
DE4E
100
AcDbEntity
  8
LAFARGE99--S-2
100
AcDbLine
 10
-17.4756030097094
 20
32.91965840387798
 30
0.0
 11
-10.38628764133909
 21
40.00188799917554
 31
0.0
  0
LINE
  5
FBAA
330
DE4E
100
AcDbEntity
  8
LAFARGE99--S-2
100
AcDbLine
 10
-12.87395459466916
 20
29.03566555620614
 30
0.0
 11
-5.75459414942793
 21
36.14791019831069
 31
0.0
  0
LINE
  5
FBAB
330
DE4E
100
AcDbEntity
  8
LAFARGE99--S-2
100
AcDbLine
 10
-8.074729623766415
 20
25.34905178656254
 30
0.0
 11
-0.9083597438514061
 21
32.50825887739552
 31
0.0
  0
LINE
  5
FBAC
330
DE4E
100
AcDbEntity
  8
LAFARGE99--S-2
100
AcDbLine
 10
-3.074288885874921
 20
21.86345266868216
 30
0.0
 11
-0.0000000000001137
 21
24.93466880179176
 31
0.0
  0
LINE
  5
FBAD
330
DE4E
100
AcDbEntity
  8
0
  6
Continuous
370
    15
100
AcDbLine
 10
-44.56873720521935
 20
47.25000000000022
 30
0.0
 11
-53.47390346260318
 21
47.25000000000022
 31
0.0
  0
LINE
  5
FBAE
330
DE4E
100
AcDbEntity
  8
0
  6
Continuous
370
    15
100
AcDbLine
 10
-53.18835463998857
 20
59.21642119013085
 30
0.0
 11
-53.97273072907274
 21
47.78422511105441
 31
0.0
  0
LINE
  5
FBAF
330
DE4E
100
AcDbEntity
  8
0
  6
Continuous
370
    15
100
AcDbLine
 10
-47.50811976073032
 20
59.82904473937129
 30
0.0
 11
-52.12224988494108
 21
60.14562550096093
 31
0.0
  0
LINE
  5
FBB0
330
DE4E
100
AcDbEntity
  8
0
  6
Continuous
370
     0
100
AcDbLine
 10
-28.83920266127006
 20
53.2769664885625
 30
0.0
 11
-28.5784909124518
 21
54.037361327805
 31
0.0
  0
LINE
  5
FBB1
330
DE4E
100
AcDbEntity
  8
0
  6
Continuous
370
    15
100
AcDbLine
 10
-44.01831499141531
 20
53.57549934305257
 30
0.0
 11
-29.85359694133876
 21
52.60364178653003
 31
0.0
  0
LINE
  5
FBB2
330
DE4E
100
AcDbEntity
  8
0
  6
Continuous
370
    15
100
AcDbLine
 10
-20.54053286198405
 20
50.00000000000046
 30
0.0
 11
-24.78377663721039
 21
54.70020848948184
 31
0.0
  0
LINE
  5
FBB3
330
DE4E
100
AcDbEntity
  8
0
  6
Continuous
370
    15
100
AcDbLine
 10
-26.13141227546726
 20
55.35531136979239
 30
0.0
 11
-26.54970235232076
 21
55.38401073186742
 31
0.0
  0
LINE
  5
FBB4
330
DE4E
100
AcDbEntity
  8
0
  6
Continuous
370
    15
100
AcDbLine
 10
-45.84416754760377
 20
55.18662009651393
 30
0.0
 11
-46.59519348263574
 21
59.02348436264015
 31
0.0
  0
LINE
  5
FBB5
330
DE4E
100
AcDbEntity
  8
0
  6
Continuous
370
    15
100
AcDbLine
 10
-43.45070879771561
 20
46.31351799389835
 30
0.0
 11
-43.70271180143504
 21
46.75000000000022
 31
0.0
  0
ARC
  5
FBB6
330
DE4E
100
AcDbEntity
  8
0
  6
Continuous
370
    15
100
AcDbCircle
 10
69.45946713801527
 20
131.2499999999936
 30
0.0
 40
121.2499999999961
100
AcDbArc
 50
222.0750220508378
 51
235.0499852075221
  0
ARC
  5
FBB7
330
DE4E
100
AcDbEntity
  8
0
  6
Continuous
370
    15
100
AcDbCircle
 10
-26.2683127196849
 20
53.36000230391505
 30
0.0
 40
2.00000000000021
100
AcDbArc
 50
42.07502205083786
 51
86.07502205083871
  0
ARC
  5
FBB8
330
DE4E
100
AcDbEntity
  8
0
  6
Continuous
370
    15
100
AcDbCircle
 10
-26.68660279653818
 20
53.3887016659894
 30
0.0
 40
2.000000000000419
100
AcDbArc
 50
86.07502205085172
 51
161.0750220508385
  0
ARC
  5
FBB9
330
DE4E
100
AcDbEntity
  8
0
  6
Continuous
370
    15
100
AcDbCircle
 10
-29.78514671922722
 20
53.60129631946825
 30
0.0
 40
0.9999999999995829
100
AcDbArc
 50
266.0750220506697
 51
341.0750220509477
  0
ARC
  5
FBBA
330
DE4E
100
AcDbEntity
  8
0
  6
Continuous
370
    15
100
AcDbCircle
 10
-43.88141454719766
 20
55.57080840893036
 30
0.0
 40
2.000000000000058
100
AcDbArc
 50
191.0750220508942
 51
266.0750220508388
  0
ARC
  5
FBBB
330
DE4E
100
AcDbEntity
  8
0
  6
Continuous
370
    15
100
AcDbCircle
 10
-47.57656998283937
 20
58.83139020643239
 30
0.0
 40
1.000000000000419
100
AcDbArc
 50
11.07502205085337
 51
86.07502205082573
  0
ARC
  5
FBBC
330
DE4E
100
AcDbEntity
  8
0
  6
Continuous
370
    15
100
AcDbCircle
 10
-52.1907001070499
 20
59.14797096802203
 30
0.0
 40
0.9999999999999973
100
AcDbArc
 50
86.07502205083871
 51
176.0750220508391
  0
ARC
  5
FBBD
330
DE4E
100
AcDbEntity
  8
0
  6
Continuous
370
    15
100
AcDbCircle
 10
-53.47390346260318
 20
47.75000000000022
 30
0.0
 40
0.4999999999999402
100
AcDbArc
 50
176.0750220508391
 51
270.0
  0
ARC
  5
FBBE
330
DE4E
100
AcDbEntity
  8
0
  6
Continuous
370
    15
100
AcDbCircle
 10
-44.5687372052198
 20
46.24999999999795
 30
0.0
 40
1.00000000000237
100
AcDbArc
 50
30.00000000010557
 51
90.0
  0
ARC
  5
FBBF
330
DE4E
100
AcDbEntity
  8
0
  6
Continuous
370
    15
100
AcDbCircle
 10
-43.19090117657697
 20
46.46351799389253
 30
0.0
 40
0.3000000000000961
100
AcDbArc
 50
209.9999999987369
 51
259.4451143725117
  0
ARC
  5
FBC0
330
DE4E
100
AcDbEntity
  8
0
  6
Continuous
370
    15
100
AcDbCircle
 10
-52.46742833377971
 20
-3.321938377148399
 30
0.0
 40
50.34233033907056
100
AcDbArc
 50
47.82231890391189
 51
79.44511437249895
  0
ARC
  5
FBC1
330
DE4E
100
AcDbEntity
  8
0
  6
Continuous
370
    15
100
AcDbCircle
 10
69.45946713812237
 20
131.2500000003233
 30
0.0
 40
131.2500000003595
100
AcDbArc
 50
227.8223189039855
 51
238.0475699576166
  0
ARC
  5
FBC2
330
DE4E
100
AcDbEntity
  8
0
  6
Continuous
370
     0
100
AcDbCircle
 10
-30.98534073009114
 20
41.09861402250203
 30
0.0
 40
0.9999999999025266
100
AcDbArc
 50
47.82231890107564
 51
64.19126685457245
  0
ENDBLK
  5
DE73
330
DE4E
100
AcDbEntity
  8
0
100
AcDbBlockEnd
  0
BLOCK
  5
FCC0
330
FCBD
100
AcDbEntity
  8
0
100
AcDbBlockBegin
  2
A$C655F108E
 70
     0
 10
0.0
 20
0.0
 30
0.0
  3
A$C655F108E
  1

  0
LINE
  5
FCC1
330
FCBD
100
AcDbEntity
  8
SX$17
  6
Continuous
 62
    32
100
AcDbLine
 10
301.0276495787985
 20
31.48916214033488
 30
0.0
 11
295.6392162477241
 21
30.04533578080373
 31
0.0
  0
ARC
  5
FCC2
330
FCBD
100
AcDbEntity
  8
SX$17
  6
Continuous
 62
    32
100
AcDbCircle
 10
201.4167842813149
 20
161.5378043994606
 30
0.0
 40
161.7656823590624
100
AcDbArc
 50
273.0415159848063
 51
305.6239236738721
  0
ARC
  5
FCC3
330
FCBD
100
AcDbEntity
  8
SX$17
  6
Continuous
 62
    32
100
AcDbCircle
 10
209.9999969815544
 20
31.41526167939628
 30
0.0
 40
31.4152684847304
100
AcDbArc
 50
207.8192458917122
 51
270.0
  0
LINE
  5
FCC4
330
FCBD
100
AcDbEntity
  8
SX$17
  6
Continuous
 62
    32
100
AcDbLine
 10
182.2155712706662
 20
16.75426642382626
 30
0.0
 11
177.6884822634128
 21
25.3336681640194
 31
0.0
  0
ARC
  5
FCC5
330
FCBD
100
AcDbEntity
  8
SX$17
  6
Continuous
 62
    32
100
AcDbCircle
 10
159.9999969815544
 20
15.99999319466587
 30
0.0
 40
20.00000000000149
100
AcDbArc
 50
27.81924589171213
 51
132.7868104464262
  0
LINE
  5
FCC6
330
FCBD
100
AcDbEntity
  8
SX$17
  6
Continuous
 62
    32
100
AcDbLine
 10
146.4145493653159
 20
30.67771825907585
 30
0.0
 11
145.6392162477277
 21
30.04533578080919
 31
0.0
  0
ARC
  5
FCC7
330
FCBD
100
AcDbEntity
  8
SX$17
  6
Continuous
 62
    32
100
AcDbCircle
 10
51.42715552954541
 20
161.5178966864605
 30
0.0
 40
161.7434593912739
100
AcDbArc
 50
274.5135220243374
 51
305.62504489105
  0
ARC
  5
FCC8
330
FCBD
100
AcDbEntity
  8
SX$17
  6
Continuous
 62
    32
100
AcDbCircle
 10
59.99999698153988
 20
31.41526167940901
 30
0.0
 40
31.41526848474367
100
AcDbArc
 50
212.7675456879913
 51
277.6010821979954
  0
ARC
  5
FCC9
330
FCBD
100
AcDbEntity
  8
SX$17
  6
Continuous
 62
    32
100
AcDbCircle
 10
25.17500304873101
 20
8.999993194667695
 30
0.0
 40
9.999999999997239
100
AcDbArc
 50
32.76754568799129
 51
90.0
  0
LINE
  5
FCCA
330
FCBD
100
AcDbEntity
  8
SX$17
  6
Continuous
 62
    32
100
AcDbLine
 10
25.17500304873101
 20
18.99999319466587
 30
0.0
 11
8.419634064212004
 21
18.99999319466587
 31
0.0
  0
ARC
  5
FCCB
330
FCBD
100
AcDbEntity
  8
SX$17
  6
Continuous
 62
    32
100
AcDbCircle
 10
9.209815523056022
 20
-8.282906971413467
 30
0.0
 40
27.29434058939972
100
AcDbArc
 50
88.34103377231691
 51
91.65896622768308
  0
ARC
  5
FCCC
330
FCBD
100
AcDbEntity
  8
SX$17
  6
Continuous
 62
    32
100
AcDbCircle
 10
303.2172112498156
 20
25.4535486331115
 30
0.0
 40
6.365035476129377
100
AcDbArc
 50
30.96228006647464
 51
110.1206630299759
  0
LINE
  5
FCCD
330
FCBD
100
AcDbEntity
  8
SX$17
  6
Continuous
 62
    32
100
AcDbLine
 10
308.6752685292013
 20
28.72819172012532
 30
0.0
 11
309.3210412545523
 21
27.73055092858704
 31
0.0
  0
ARC
  5
FCCE
330
FCBD
100
AcDbEntity
  8
SX$17
  6
Continuous
 62
    32
100
AcDbCircle
 10
310.9999969815544
 20
28.81733870306926
 30
0.0
 40
1.999999999999354
100
AcDbArc
 50
212.9149756983629
 51
327.0850243016372
  0
LINE
  5
FCCF
330
FCBD
100
AcDbEntity
  8
SX$17
  6
Continuous
 62
    32
100
AcDbLine
 10
312.6789527085566
 20
27.73055092858704
 30
0.0
 11
314.1420855275501
 21
29.99091425203369
 31
0.0
  0
ARC
  5
FCD0
330
FCBD
100
AcDbEntity
  8
SX$17
  6
Continuous
 62
    32
100
AcDbCircle
 10
317.4999969815544
 20
27.81733870306926
 30
0.0
 40
3.999999999998708
100
AcDbArc
 50
32.91497569836282
 51
147.0850243016371
  0
LINE
  5
FCD1
330
FCBD
100
AcDbEntity
  8
SX$17
  6
Continuous
 62
    32
100
AcDbLine
 10
320.8579084355588
 20
29.99091425203369
 30
0.0
 11
322.3210412545522
 21
27.73055092858704
 31
0.0
  0
ARC
  5
FCD2
330
FCBD
100
AcDbEntity
  8
SX$17
  6
Continuous
 62
    32
100
AcDbCircle
 10
323.9999969815544
 20
28.81733870307107
 30
0.0
 40
2.000000000000342
100
AcDbArc
 50
212.9149756983629
 51
327.6664693064694
  0
LINE
  5
FCD3
330
FCBD
100
AcDbEntity
  8
SX$17
  6
Continuous
 62
    32
100
AcDbLine
 10
325.6898949301103
 20
27.74764485739979
 30
0.0
 11
326.7055582644935
 21
29.35218562590307
 31
0.0
  0
ARC
  5
FCD4
330
FCBD
100
AcDbEntity
  8
SX$17
  6
Continuous
 62
    32
100
AcDbCircle
 10
327.5505072387714
 20
28.81733870306926
 30
0.0
 40
0.9999999999990759
100
AcDbArc
 50
90.0
 51
147.6664693065575
  0
LINE
  5
FCD5
330
FCBD
100
AcDbEntity
  8
SX$17
  6
Continuous
 62
    32
100
AcDbLine
 10
327.5505072387714
 20
29.81733870306925
 30
0.0
 11
331.9999969815544
 21
29.81733870306925
 31
0.0
  0
LINE
  5
FCD6
330
FCBD
100
AcDbEntity
  8
SX$17
  6
Continuous
 62
    32
100
AcDbLine
 10
331.9999969815544
 20
29.81733870306925
 30
0.0
 11
331.9999969815544
 21
33.32050127035472
 31
0.0
  0
ARC
  5
FCD7
330
FCBD
100
AcDbEntity
  8
SX$17
  6
Continuous
 62
    32
100
AcDbCircle
 10
309.9999969815544
 20
15.99999319466587
 30
0.0
 40
28.00000000000005
100
AcDbArc
 50
38.21321070172164
 51
132.7868104465792
  0
ARC
  5
FCD8
330
FCBD
100
AcDbEntity
  8
SX$17
  6
Continuous
 62
    32
100
AcDbCircle
 10
201.3471542817351
 20
161.6714598685394
 30
0.0
 40
153.9148834794314
100
AcDbArc
 50
273.2227740183539
 51
305.6164040684531
  0
ARC
  5
FCD9
330
FCBD
100
AcDbEntity
  8
SX$17
  6
Continuous
 62
    32
100
AcDbCircle
 10
209.9999969815544
 20
31.41526167939992
 30
0.0
 40
23.41526848473404
100
AcDbArc
 50
207.8192458917122
 51
270.0
  0
LINE
  5
FCDA
330
FCBD
100
AcDbEntity
  8
SX$17
  6
Continuous
 62
    32
100
AcDbLine
 10
189.2909653834067
 20
20.48773641156731
 30
0.0
 11
184.7638763761533
 21
29.06713815176045
 31
0.0
  0
ARC
  5
FCDB
330
FCBD
100
AcDbEntity
  8
SX$17
  6
Continuous
 62
    32
100
AcDbCircle
 10
159.9999969815544
 20
15.99999319466587
 30
0.0
 40
27.99999999999934
100
AcDbArc
 50
27.81924589171213
 51
132.7868104464262
  0
ARC
  5
FCDC
330
FCBD
100
AcDbEntity
  8
SX$17
  6
Continuous
 62
    32
100
AcDbCircle
 10
51.34715428173513
 20
161.6714598685394
 30
0.0
 40
153.9148834794291
100
AcDbArc
 50
273.2227740183539
 51
305.6164040684531
  0
ARC
  5
FCDD
330
FCBD
100
AcDbEntity
  8
SX$17
  6
Continuous
 62
    32
100
AcDbCircle
 10
59.99999698155443
 20
31.41526167939992
 30
0.0
 40
23.41526848473222
100
AcDbArc
 50
207.8192458917122
 51
270.0
  0
LINE
  5
FCDE
330
FCBD
100
AcDbEntity
  8
SX$17
  6
Continuous
 62
    32
100
AcDbLine
 10
39.29096538340673
 20
20.48773641156731
 30
0.0
 11
35.96201499580275
 21
26.77326228935636
 31
0.0
  0
ARC
  5
FCDF
330
FCBD
100
AcDbEntity
  8
SX$17
  6
Continuous
 62
    32
100
AcDbCircle
 10
31.90923215624934
 20
24.53300883658085
 30
0.0
 40
4.630743382789755
100
AcDbArc
 50
28.93246503611698
 51
67.50404168325109
  0
ARC
  5
FCE0
330
FCBD
100
AcDbEntity
  8
SX$17
  6
Continuous
 62
    32
100
AcDbCircle
 10
16.61464533292383
 20
-11.42947655986063
 30
0.0
 40
43.71027984893113
100
AcDbArc
 50
67.01790313183697
 51
112.3404027691708
  0
LINE
  5
FCE1
330
FCBD
100
AcDbEntity
  8
SX$17
  6
Continuous
 62
    32
100
AcDbLine
 10
-0.0000030184455682
 20
28.99999319466587
 30
0.0
 11
-0.0000030184455682
 21
18.99999319466587
 31
0.0
  0
LINE
  5
FCE2
330
FCBD
100
AcDbEntity
  8
SX$17
  6
Continuous
 62
    32
100
AcDbLine
 10
-0.0000030184455682
 20
18.99999319466587
 30
0.0
 11
8.419634064212004
 21
18.99999319466587
 31
0.0
  0
LINE
  5
FCE3
330
FCBD
100
AcDbEntity
  8
SX$17
  6
Continuous
 62
    32
100
AcDbLine
 10
301.0276495787985
 20
31.48916214033488
 30
0.0
 11
301.0276495787985
 21
31.43012761286263
 31
0.0
  0
ENDBLK
  5
FCE4
330
FCBD
100
AcDbEntity
  8
0
100
AcDbBlockEnd
  0
BLOCK
  5
FD98
330
FD97
100
AcDbEntity
  8
0
100
AcDbBlockBegin
  2
B&C dobbltvinget
 70
     0
 10
0.0
 20
0.0
 30
0.0
  3
B&C dobbltvinget
  1

  0
HATCH
  5
FD9A
330
FD97
100
AcDbEntity
  8
A99--S-
100
AcDbHatch
 10
0.0
 20
0.0
 30
0.0
210
0.0
220
0.0
230
1.0
  2
ANSI31
 70
     0
 71
     1
 91
        1
 92
       33
 93
       57
 72
     2
 10
87.11487222658252
 20
35.70655595047356
 40
14.0
 50
27.03804700000707
 51
120.0098799999715
 73
     1
 72
     2
 10
89.11491722660503
 20
35.70655595047356
 40
25.0
 50
20.80614800003442
 51
92.29243899999643
 73
     1
 72
     1
 10
48.88298722659602
 20
42.49496095048743
 11
74.61121222659494
 21
57.35511595048956
 72
     1
 10
54.38454222659129
 20
32.96966595048798
 11
80.11276722659022
 21
47.82974095047757
 72
     2
 10
87.11494722660063
 20
35.70655595047356
 40
25.0
 50
87.70755900008053
 51
120.0098799999715
 73
     1
 72
     2
 10
138.1148572265847
 20
147.706755950483
 40
132.5
 50
266.4968789999255
 51
305.0283249999014
 73
     1
 72
     2
 10
134.1148422265869
 20
49.20661595049387
 40
34.0
 50
207.0379649999593
 51
263.0805269999197
 73
     1
 72
     1
 10
99.58473722660347
 20
42.07069095048427
 11
103.8308772266064
 21
33.75083595049
 72
     2
 10
138.1148572265847
 20
53.20655595047355
 40
27.0
 50
201.7398140000537
 51
270.0000010000991
 73
     1
 72
     2
 10
138.1148572265847
 20
147.706755950483
 40
121.499995
 50
270.0000010000991
 51
300.0098850000148
 73
     1
 72
     1
 10
198.882907226598
 20
42.49496095048743
 11
224.611132226597
 21
57.35511595048956
 72
     1
 10
214.1674072265778
 20
39.20661595049387
 11
225.7035122266134
 21
39.20661595049387
 72
     1
 10
261.1148872266094
 20
46.20658595048371
 11
261.1148872266094
 21
47.58094595048532
 72
     2
 10
239.1148422265869
 20
35.70655595047356
 40
25.0
 50
28.35763599996332
 51
92.29243899999643
 73
     1
 72
     2
 10
237.1148722265825
 20
35.70655595047356
 40
25.0
 50
87.70755900008053
 51
120.0098799999715
 73
     1
 72
     1
 10
257.6149022265781
 20
46.20658595048371
 11
261.1148872266094
 21
46.20658595048371
 72
     2
 10
257.6149022265781
 20
44.70657095048591
 40
1.5
 50
90.0000030000889
 51
165.2375209999674
 73
     1
 72
     1
 10
244.8648872266094
 20
46.70661595049387
 11
247.4372122265959
 21
46.70661595049387
 72
     2
 10
253.2148022266083
 20
43.70658595048371
 40
2.5
 50
205.4920199999878
 51
345.2375120001286
 73
     1
 72
     1
 10
256.1644022266009
 20
45.08880595049777
 11
255.6323272265763
 21
43.06953095049903
 72
     1
 10
250.9582572265972
 20
42.63069095048194
 11
249.693837226605
 21
45.28259095049361
 72
     2
 10
247.4372122265959
 20
44.20661595049387
 40
2.5
 50
25.49201300003132
 51
90.0000030000889
 73
     1
 72
     1
 10
240.1780722265867
 20
43.70658595048371
 11
240.3648422265869
 21
43.70658595048371
 72
     1
 10
241.9648022266083
 20
44.50660595049339
 11
242.8648422265869
 21
45.70655595047355
 72
     2
 10
244.8648872266094
 20
44.20661595049387
 40
2.5
 50
90.0000030000889
 51
143.1300969999363
 73
     1
 72
     2
 10
240.3648422265869
 20
45.70655595047355
 40
2.0
 50
270.0000010000991
 51
323.1301020000593
 73
     1
 72
     1
 10
236.9306972265804
 20
46.94374095049352
 11
238.5202072266002
 21
44.58801095049785
 72
     2
 10
240.1780722265867
 20
45.70655595047355
 40
2.0
 50
214.0077349997965
 51
270.0000010000991
 73
     1
 72
     1
 10
228.5320322265943
 20
47.30682095048905
 11
232.4198172266224
 21
48.52394095050477
 72
     2
 10
233.6148872266094
 20
44.70657095048591
 40
4.0
 50
34.00815699996883
 51
107.3832639999815
 73
     1
 72
     1
 10
226.1519672266186
 20
41.416395950484
 11
226.4397472266028
 21
44.70527595047679
 72
     2
 10
216.19003722657
 20
42.28797595047581
 40
10.0
 50
342.0527039999717
 51
354.9999020000321
 73
     1
 72
     2
 10
229.4283322265874
 20
44.44381595049708
 40
3.0
 50
107.3835169999953
 51
174.999336999993
 73
     1
 72
     2
 10
-60.38505277339936
 20
5.706555950473557
 40
28.0
 50
49.27037599990242
 51
90.0000030000889
 73
     1
 72
     1
 10
-60.88515777341308
 20
41.70661595049387
 11
-59.42985277340267
 21
41.70661595049387
 72
     2
 10
-59.42985277340267
 20
45.70655595047355
 40
4.0
 50
270.0000010000991
 51
330.7549979999373
 73
     1
 72
     2
 10
-60.88515777341308
 20
44.70657095048591
 40
3.0
 50
211.2732280000148
 51
270.0000010000991
 73
     1
 72
     1
 10
-65.02570777339497
 20
45.74478095048471
 11
-63.44924277340396
 21
43.14918595047856
 72
     2
 10
-66.73514777340097
 20
44.70657095048591
 40
2.0
 50
31.27322299982962
 51
108.0665090000473
 73
     1
 72
     1
 10
-70.88515777341308
 20
45.45661595049387
 11
-67.35534277342594
 21
46.60804595049194
 72
     1
 10
-70.88515777341308
 20
33.70658595048372
 11
-70.88515777341308
 21
45.45661595049387
 72
     1
 10
-70.88508277339497
 20
33.70658595048372
 11
-60.38505277339936
 21
33.70658595048372
 72
     2
 10
-11.88506777342627
 20
147.706755950483
 40
121.499995
 50
270.0000010000991
 51
300.0098850000148
 73
     1
 72
     2
 10
-11.88506777342627
 20
53.20655595047355
 40
27.0
 50
203.5781730000178
 51
270.0000010000991
 73
     1
 72
     1
 10
-42.28507777340928
 20
43.4066009504786
 11
-43.48510277343666
 21
41.80656095048834
 72
     2
 10
-46.68509777341023
 20
44.20661595049387
 40
4.0
 50
270.0000010000991
 51
323.1304580001108
 73
     1
 72
     1
 10
-40.68511277340803
 20
44.20661595049387
 11
-39.38056277340729
 21
44.20661595049387
 72
     2
 10
-47.42034277339917
 20
44.20661595049387
 40
4.0
 50
206.7170819999117
 51
270.0000010000991
 73
     1
 72
     1
 10
-47.42034277339917
 20
40.20660095048151
 11
-46.68509777341023
 21
40.20660095048151
 72
     2
 10
-39.38056277340729
 20
41.20658595048371
 40
3.0
 50
23.57817800001519
 51
90.0000030000889
 73
     1
 72
     2
 10
-40.68511277340803
 20
42.20657095048591
 40
2.0
 50
90.0000030000889
 51
143.1304529999539
 73
     1
 72
     1
 10
-50.99326777341412
 20
42.40821595049419
 11
-51.99866777340867
 21
44.40574595048746
 72
     2
 10
-53.78516777339609
 20
43.50654595048763
 40
2.0
 50
26.7170839999484
 51
150.7561270000429
 73
     1
 72
     1
 10
-55.93963277342481
 20
43.75244095048765
 11
-55.53023777340058
 21
44.48371595048593
 72
     2
 10
-15.88515777341308
 20
49.20661595049387
 40
34.0
 50
229.270380999957
 51
263.0805269999197
 73
     1
 72
     1
 10
-42.11516777341239
 20
26.92474095049329
 11
-38.06998777339686
 21
23.44169595047788
 72
     2
 10
-11.88514277341528
 20
147.706755950483
 40
132.5
 50
266.4968789999255
 51
300.0098850000148
 73
     1
 97
       57
330
FDA0
330
FDD0
330
FDCB
330
FDA3
330
FDD1
330
FDA4
330
FDA1
330
FDA2
330
FDCF
330
FDCD
330
FDC7
330
FD9E
330
FDD4
330
FDD3
330
FDD2
330
FDC9
330
FDC8
330
FDC6
330
FDC5
330
FDC4
330
FDC3
330
FDC2
330
FDC1
330
FDC0
330
FDBF
330
FDBE
330
FDBD
330
FDBC
330
FDBB
330
FDB9
330
FDCA
330
FD9B
330
FDBA
330
FD9C
330
FDB6
330
FDAE
330
FDAC
330
FDAB
330
FDAA
330
FDA9
330
FDA8
330
FDA6
330
FDCC
330
FDA7
330
FDB8
330
FDB7
330
FDB5
330
FDB4
330
FDB3
330
FDB2
330
FDB1
330
FDB0
330
FDAF
330
FDAD
330
FD9F
330
FD9D
330
FDA5
 75
     0
 76
     1
 52
0.0
 41
2.0
 77
     0
 78
     1
 53
45.0
 43
-18790.3699323069
 44
7404.922526444152
 45
-4.490128060534575
 46
4.490128060534576
 79
     0
 98
        1
 10
-18790.3699323069
 20
7404.922526444152
1001
ACAD
1010
0.0
1020
0.0
1030
0.0
  0
ARC
  5
FD9B
102
{ACAD_REACTORS
330
FD9A
102
}
330
FD97
100
AcDbEntity
  8
SX$17
 62
    32
100
AcDbCircle
 10
216.19003722657
 20
42.28797595047581
 30
0.0
 40
10.0
100
AcDbArc
 50
342.0527039999717
 51
354.9999020000321
  0
ARC
  5
FD9C
102
{ACAD_REACTORS
330
FD9A
102
}
330
FD97
100
AcDbEntity
  8
SX$17
 62
    32
100
AcDbCircle
 10
-60.38505277339936
 20
5.706555950473557
 30
0.0
 40
28.0
100
AcDbArc
 50
49.27037599990242
 51
90.0000030000889
  0
LINE
  5
FD9D
102
{ACAD_REACTORS
330
FD9A
102
}
330
FD97
100
AcDbEntity
  8
SX$17
 62
    32
100
AcDbLine
 10
-42.11516777341239
 20
26.92474095049329
 30
0.0
 11
-38.06998777339686
 21
23.44169595047788
 31
0.0
  0
LINE
  5
FD9E
102
{ACAD_REACTORS
330
FD9A
102
}
330
FD97
100
AcDbEntity
  8
SX$17
 62
    32
100
AcDbLine
 10
214.1674072265778
 20
39.20661595049387
 30
0.0
 11
225.7035122266134
 21
39.20661595049387
 31
0.0
  0
ARC
  5
FD9F
102
{ACAD_REACTORS
330
FD9A
102
}
330
FD97
100
AcDbEntity
  8
SX$17
 62
    32
100
AcDbCircle
 10
-15.88515777341308
 20
49.20661595049387
 30
0.0
 40
34.0
100
AcDbArc
 50
229.270380999957
 51
263.0805269999197
  0
ARC
  5
FDA0
102
{ACAD_REACTORS
330
FD9A
102
}
330
FD97
100
AcDbEntity
  8
SX$17
 62
    32
100
AcDbCircle
 10
87.11487222658252
 20
35.70655595047356
 30
0.0
 40
14.0
100
AcDbArc
 50
27.03804700000707
 51
120.0098799999715
  0
ARC
  5
FDA1
102
{ACAD_REACTORS
330
FD9A
102
}
330
FD97
100
AcDbEntity
  8
SX$17
 62
    32
100
AcDbCircle
 10
134.1148422265869
 20
49.20661595049387
 30
0.0
 40
34.0
100
AcDbArc
 50
207.0379649999593
 51
263.0805269999197
  0
LINE
  5
FDA2
102
{ACAD_REACTORS
330
FD9A
102
}
330
FD97
100
AcDbEntity
  8
SX$17
 62
    32
100
AcDbLine
 10
99.58473722660347
 20
42.07069095048427
 30
0.0
 11
103.8308772266064
 21
33.75083595049
 31
0.0
  0
LINE
  5
FDA3
102
{ACAD_REACTORS
330
FD9A
102
}
330
FD97
100
AcDbEntity
  8
SX$17
 62
    32
100
AcDbLine
 10
54.38454222659129
 20
32.96966595048798
 30
0.0
 11
80.11276722659022
 21
47.82974095047757
 31
0.0
  0
ARC
  5
FDA4
102
{ACAD_REACTORS
330
FD9A
102
}
330
FD97
100
AcDbEntity
  8
SX$17
 62
    32
100
AcDbCircle
 10
138.1148572265847
 20
147.706755950483
 30
0.0
 40
132.5
100
AcDbArc
 50
266.4968789999255
 51
305.0283249999014
  0
ARC
  5
FDA5
102
{ACAD_REACTORS
330
FD9A
102
}
330
FD97
100
AcDbEntity
  8
SX$17
 62
    32
100
AcDbCircle
 10
-11.88514277341528
 20
147.706755950483
 30
0.0
 40
132.5
100
AcDbArc
 50
266.4968789999255
 51
300.0098850000148
  0
LINE
  5
FDA6
102
{ACAD_REACTORS
330
FD9A
102
}
330
FD97
100
AcDbEntity
  8
SX$17
 62
    32
100
AcDbLine
 10
-70.88508277339497
 20
33.70658595048372
 30
0.0
 11
-60.38505277339936
 21
33.70658595048372
 31
0.0
  0
ARC
  5
FDA7
102
{ACAD_REACTORS
330
FD9A
102
}
330
FD97
100
AcDbEntity
  8
SX$17
 62
    32
100
AcDbCircle
 10
-11.88506777342627
 20
53.20655595047355
 30
0.0
 40
27.0
100
AcDbArc
 50
203.5781730000178
 51
270.0000010000991
  0
LINE
  5
FDA8
102
{ACAD_REACTORS
330
FD9A
102
}
330
FD97
100
AcDbEntity
  8
SX$17
 62
    32
100
AcDbLine
 10
-70.88515777341308
 20
33.70658595048372
 30
0.0
 11
-70.88515777341308
 21
45.45661595049387
 31
0.0
  0
LINE
  5
FDA9
102
{ACAD_REACTORS
330
FD9A
102
}
330
FD97
100
AcDbEntity
  8
SX$17
 62
    32
100
AcDbLine
 10
-70.88515777341308
 20
45.45661595049387
 30
0.0
 11
-67.35534277342594
 21
46.60804595049194
 31
0.0
  0
ARC
  5
FDAA
102
{ACAD_REACTORS
330
FD9A
102
}
330
FD97
100
AcDbEntity
  8
SX$17
 62
    32
100
AcDbCircle
 10
-66.73514777340097
 20
44.70657095048591
 30
0.0
 40
2.0
100
AcDbArc
 50
31.27322299982962
 51
108.0665090000473
  0
LINE
  5
FDAB
102
{ACAD_REACTORS
330
FD9A
102
}
330
FD97
100
AcDbEntity
  8
SX$17
 62
    32
100
AcDbLine
 10
-65.02570777339497
 20
45.74478095048471
 30
0.0
 11
-63.44924277340396
 21
43.14918595047856
 31
0.0
  0
ARC
  5
FDAC
102
{ACAD_REACTORS
330
FD9A
102
}
330
FD97
100
AcDbEntity
  8
SX$17
 62
    32
100
AcDbCircle
 10
-60.88515777341308
 20
44.70657095048591
 30
0.0
 40
3.0
100
AcDbArc
 50
211.2732280000148
 51
270.0000010000991
  0
LINE
  5
FDAD
102
{ACAD_REACTORS
330
FD9A
102
}
330
FD97
100
AcDbEntity
  8
SX$17
 62
    32
100
AcDbLine
 10
-55.93963277342481
 20
43.75244095048765
 30
0.0
 11
-55.53023777340058
 21
44.48371595048593
 31
0.0
  0
ARC
  5
FDAE
102
{ACAD_REACTORS
330
FD9A
102
}
330
FD97
100
AcDbEntity
  8
SX$17
 62
    32
100
AcDbCircle
 10
-59.42985277340267
 20
45.70655595047355
 30
0.0
 40
4.0
100
AcDbArc
 50
270.0000010000991
 51
330.7549979999373
  0
ARC
  5
FDAF
102
{ACAD_REACTORS
330
FD9A
102
}
330
FD97
100
AcDbEntity
  8
SX$17
 62
    32
100
AcDbCircle
 10
-53.78516777339609
 20
43.50654595048763
 30
0.0
 40
2.0
100
AcDbArc
 50
26.7170839999484
 51
150.7561270000429
  0
LINE
  5
FDB0
102
{ACAD_REACTORS
330
FD9A
102
}
330
FD97
100
AcDbEntity
  8
SX$17
 62
    32
100
AcDbLine
 10
-50.99326777341412
 20
42.40821595049419
 30
0.0
 11
-51.99866777340867
 21
44.40574595048746
 31
0.0
  0
ARC
  5
FDB1
102
{ACAD_REACTORS
330
FD9A
102
}
330
FD97
100
AcDbEntity
  8
SX$17
 62
    32
100
AcDbCircle
 10
-40.68511277340803
 20
42.20657095048591
 30
0.0
 40
2.0
100
AcDbArc
 50
90.0000030000889
 51
143.1304529999539
  0
ARC
  5
FDB2
102
{ACAD_REACTORS
330
FD9A
102
}
330
FD97
100
AcDbEntity
  8
SX$17
 62
    32
100
AcDbCircle
 10
-39.38056277340729
 20
41.20658595048371
 30
0.0
 40
3.0
100
AcDbArc
 50
23.57817800001519
 51
90.0000030000889
  0
LINE
  5
FDB3
102
{ACAD_REACTORS
330
FD9A
102
}
330
FD97
100
AcDbEntity
  8
SX$17
 62
    32
100
AcDbLine
 10
-47.42034277339917
 20
40.20660095048151
 30
0.0
 11
-46.68509777341023
 21
40.20660095048151
 31
0.0
  0
ARC
  5
FDB4
102
{ACAD_REACTORS
330
FD9A
102
}
330
FD97
100
AcDbEntity
  8
SX$17
 62
    32
100
AcDbCircle
 10
-47.42034277339917
 20
44.20661595049387
 30
0.0
 40
4.0
100
AcDbArc
 50
206.7170819999117
 51
270.0000010000991
  0
LINE
  5
FDB5
102
{ACAD_REACTORS
330
FD9A
102
}
330
FD97
100
AcDbEntity
  8
SX$17
 62
    32
100
AcDbLine
 10
-40.68511277340803
 20
44.20661595049387
 30
0.0
 11
-39.38056277340729
 21
44.20661595049387
 31
0.0
  0
LINE
  5
FDB6
102
{ACAD_REACTORS
330
FD9A
102
}
330
FD97
100
AcDbEntity
  8
SX$17
 62
    32
100
AcDbLine
 10
-60.88515777341308
 20
41.70661595049387
 30
0.0
 11
-59.42985277340267
 21
41.70661595049387
 31
0.0
  0
ARC
  5
FDB7
102
{ACAD_REACTORS
330
FD9A
102
}
330
FD97
100
AcDbEntity
  8
SX$17
 62
    32
100
AcDbCircle
 10
-46.68509777341023
 20
44.20661595049387
 30
0.0
 40
4.0
100
AcDbArc
 50
270.0000010000991
 51
323.1304580001108
  0
LINE
  5
FDB8
102
{ACAD_REACTORS
330
FD9A
102
}
330
FD97
100
AcDbEntity
  8
SX$17
 62
    32
100
AcDbLine
 10
-42.28507777340928
 20
43.4066009504786
 30
0.0
 11
-43.48510277343666
 21
41.80656095048834
 31
0.0
  0
ARC
  5
FDB9
102
{ACAD_REACTORS
330
FD9A
102
}
330
FD97
100
AcDbEntity
  8
SX$17
 62
    32
100
AcDbCircle
 10
233.6148872266094
 20
44.70657095048591
 30
0.0
 40
4.0
100
AcDbArc
 50
34.00815699996883
 51
107.3832639999815
  0
ARC
  5
FDBA
102
{ACAD_REACTORS
330
FD9A
102
}
330
FD97
100
AcDbEntity
  8
SX$17
 62
    32
100
AcDbCircle
 10
229.4283322265874
 20
44.44381595049708
 30
0.0
 40
3.0
100
AcDbArc
 50
107.3835169999953
 51
174.999336999993
  0
LINE
  5
FDBB
102
{ACAD_REACTORS
330
FD9A
102
}
330
FD97
100
AcDbEntity
  8
SX$17
 62
    32
100
AcDbLine
 10
228.5320322265943
 20
47.30682095048905
 30
0.0
 11
232.4198172266224
 21
48.52394095050477
 31
0.0
  0
ARC
  5
FDBC
102
{ACAD_REACTORS
330
FD9A
102
}
330
FD97
100
AcDbEntity
  8
SX$17
 62
    32
100
AcDbCircle
 10
240.1780722265867
 20
45.70655595047355
 30
0.0
 40
2.0
100
AcDbArc
 50
214.0077349997965
 51
270.0000010000991
  0
LINE
  5
FDBD
102
{ACAD_REACTORS
330
FD9A
102
}
330
FD97
100
AcDbEntity
  8
SX$17
 62
    32
100
AcDbLine
 10
236.9306972265804
 20
46.94374095049352
 30
0.0
 11
238.5202072266002
 21
44.58801095049785
 31
0.0
  0
ARC
  5
FDBE
102
{ACAD_REACTORS
330
FD9A
102
}
330
FD97
100
AcDbEntity
  8
SX$17
 62
    32
100
AcDbCircle
 10
240.3648422265869
 20
45.70655595047355
 30
0.0
 40
2.0
100
AcDbArc
 50
270.0000010000991
 51
323.1301020000593
  0
ARC
  5
FDBF
102
{ACAD_REACTORS
330
FD9A
102
}
330
FD97
100
AcDbEntity
  8
SX$17
 62
    32
100
AcDbCircle
 10
244.8648872266094
 20
44.20661595049387
 30
0.0
 40
2.5
100
AcDbArc
 50
90.0000030000889
 51
143.1300969999363
  0
LINE
  5
FDC0
102
{ACAD_REACTORS
330
FD9A
102
}
330
FD97
100
AcDbEntity
  8
SX$17
 62
    32
100
AcDbLine
 10
241.9648022266083
 20
44.50660595049339
 30
0.0
 11
242.8648422265869
 21
45.70655595047355
 31
0.0
  0
LINE
  5
FDC1
102
{ACAD_REACTORS
330
FD9A
102
}
330
FD97
100
AcDbEntity
  8
SX$17
 62
    32
100
AcDbLine
 10
240.1780722265867
 20
43.70658595048371
 30
0.0
 11
240.3648422265869
 21
43.70658595048371
 31
0.0
  0
ARC
  5
FDC2
102
{ACAD_REACTORS
330
FD9A
102
}
330
FD97
100
AcDbEntity
  8
SX$17
 62
    32
100
AcDbCircle
 10
247.4372122265959
 20
44.20661595049387
 30
0.0
 40
2.5
100
AcDbArc
 50
25.49201300003132
 51
90.0000030000889
  0
LINE
  5
FDC3
102
{ACAD_REACTORS
330
FD9A
102
}
330
FD97
100
AcDbEntity
  8
SX$17
 62
    32
100
AcDbLine
 10
250.9582572265972
 20
42.63069095048194
 30
0.0
 11
249.693837226605
 21
45.28259095049361
 31
0.0
  0
LINE
  5
FDC4
102
{ACAD_REACTORS
330
FD9A
102
}
330
FD97
100
AcDbEntity
  8
SX$17
 62
    32
100
AcDbLine
 10
256.1644022266009
 20
45.08880595049777
 30
0.0
 11
255.6323272265763
 21
43.06953095049903
 31
0.0
  0
ARC
  5
FDC5
102
{ACAD_REACTORS
330
FD9A
102
}
330
FD97
100
AcDbEntity
  8
SX$17
 62
    32
100
AcDbCircle
 10
253.2148022266083
 20
43.70658595048371
 30
0.0
 40
2.5
100
AcDbArc
 50
205.4920199999878
 51
345.2375120001286
  0
LINE
  5
FDC6
102
{ACAD_REACTORS
330
FD9A
102
}
330
FD97
100
AcDbEntity
  8
SX$17
 62
    32
100
AcDbLine
 10
244.8648872266094
 20
46.70661595049387
 30
0.0
 11
247.4372122265959
 21
46.70661595049387
 31
0.0
  0
LINE
  5
FDC7
102
{ACAD_REACTORS
330
FD9A
102
}
330
FD97
100
AcDbEntity
  8
SX$17
 62
    32
100
AcDbLine
 10
198.882907226598
 20
42.49496095048743
 30
0.0
 11
224.611132226597
 21
57.35511595048956
 31
0.0
  0
ARC
  5
FDC8
102
{ACAD_REACTORS
330
FD9A
102
}
330
FD97
100
AcDbEntity
  8
SX$17
 62
    32
100
AcDbCircle
 10
257.6149022265781
 20
44.70657095048591
 30
0.0
 40
1.5
100
AcDbArc
 50
90.0000030000889
 51
165.2375209999674
  0
LINE
  5
FDC9
102
{ACAD_REACTORS
330
FD9A
102
}
330
FD97
100
AcDbEntity
  8
SX$17
 62
    32
100
AcDbLine
 10
257.6149022265781
 20
46.20658595048371
 30
0.0
 11
261.1148872266094
 21
46.20658595048371
 31
0.0
  0
LINE
  5
FDCA
102
{ACAD_REACTORS
330
FD9A
102
}
330
FD97
100
AcDbEntity
  8
SX$17
 62
    32
100
AcDbLine
 10
226.1519672266186
 20
41.416395950484
 30
0.0
 11
226.4397472266028
 21
44.70527595047679
 31
0.0
  0
LINE
  5
FDCB
102
{ACAD_REACTORS
330
FD9A
102
}
330
FD97
100
AcDbEntity
  8
SX$17
 62
    32
100
AcDbLine
 10
48.88298722659602
 20
42.49496095048743
 30
0.0
 11
74.61121222659494
 21
57.35511595048956
 31
0.0
  0
ARC
  5
FDCC
102
{ACAD_REACTORS
330
FD9A
102
}
330
FD97
100
AcDbEntity
  8
SX$17
 62
    32
100
AcDbCircle
 10
-11.88506777342627
 20
147.706755950483
 30
0.0
 40
121.499995
100
AcDbArc
 50
270.0000010000991
 51
300.0098850000148
  0
ARC
  5
FDCD
102
{ACAD_REACTORS
330
FD9A
102
}
330
FD97
100
AcDbEntity
  8
SX$17
 62
    32
100
AcDbCircle
 10
138.1148572265847
 20
147.706755950483
 30
0.0
 40
121.499995
100
AcDbArc
 50
270.0000010000991
 51
300.0098850000148
  0
LINE
  5
FDCE
330
FD97
100
AcDbEntity
  8
SX$17
 62
    32
100
AcDbLine
 10
112.4845922265995
 20
44.58679095049228
 30
0.0
 11
113.035207226585
 21
43.20594595048532
 31
0.0
  0
ARC
  5
FDCF
102
{ACAD_REACTORS
330
FD9A
102
}
330
FD97
100
AcDbEntity
  8
SX$17
 62
    32
100
AcDbCircle
 10
138.1148572265847
 20
53.20655595047355
 30
0.0
 40
27.0
100
AcDbArc
 50
201.7398140000537
 51
270.0000010000991
  0
ARC
  5
FDD0
102
{ACAD_REACTORS
330
FD9A
102
}
330
FD97
100
AcDbEntity
  8
SX$17
 62
    32
100
AcDbCircle
 10
89.11491722660503
 20
35.70655595047356
 30
0.0
 40
25.0
100
AcDbArc
 50
20.80614800003442
 51
92.29243899999643
  0
ARC
  5
FDD1
102
{ACAD_REACTORS
330
FD9A
102
}
330
FD97
100
AcDbEntity
  8
SX$17
 62
    32
100
AcDbCircle
 10
87.11494722660063
 20
35.70655595047356
 30
0.0
 40
25.0
100
AcDbArc
 50
87.70755900008053
 51
120.0098799999715
  0
ARC
  5
FDD2
102
{ACAD_REACTORS
330
FD9A
102
}
330
FD97
100
AcDbEntity
  8
SX$17
 62
    32
100
AcDbCircle
 10
237.1148722265825
 20
35.70655595047356
 30
0.0
 40
25.0
100
AcDbArc
 50
87.70755900008053
 51
120.0098799999715
  0
ARC
  5
FDD3
102
{ACAD_REACTORS
330
FD9A
102
}
330
FD97
100
AcDbEntity
  8
SX$17
 62
    32
100
AcDbCircle
 10
239.1148422265869
 20
35.70655595047356
 30
0.0
 40
25.0
100
AcDbArc
 50
28.35763599996332
 51
92.29243899999643
  0
LINE
  5
FDD4
102
{ACAD_REACTORS
330
FD9A
102
}
330
FD97
100
AcDbEntity
  8
SX$17
 62
    32
100
AcDbLine
 10
261.1148872266094
 20
46.20658595048371
 30
0.0
 11
261.1148872266094
 21
47.58094595048532
 31
0.0
  0
ENDBLK
  5
FD99
330
FD97
100
AcDbEntity
  8
0
100
AcDbBlockEnd
  0
ENDSEC
  0
SECTION
  2
ENTITIES
  0
INSERT
  5
7B09
330
18
100
AcDbEntity
  8
LAFARGE09-S--
100
AcDbBlockReference
  2
Modelramme A4_1-10
 10
-3563.860138353379
 20
-1089.284786857553
 30
0.0
  0
MTEXT
  5
7B13
330
18
100
AcDbEntity
  8
LAFARGE99--T-
 62
     1
100
AcDbMText
 10
-2043.860138353378
 20
323.0841178163364
 30
0.0
 40
25.0
 41
1482.750580933927
 71
     1
 72
     5
  3
{\LNOTE:\P}Vinkelret snit i gavl med udhæng, murværk er vist i lodret snit.\PKonstruktion med B&C Danflock{\H1.0833x;\C256;®\H0.92311x;\C1; tagsten, der anvendes til taghældninger på 20° og derover.}\PDer er ikke vist forankring af tagkonstruktion og
  3
 fastgørelser iøvrigt.\PForstærkning til at bære udhæng er ikke vist.\P\PMontage:\P- Der lægtes iht. anvisninger for tagstenstype.\P- Udhængsspær fastgøres til lægter.\P- Vindskede monteres i lægteender.\P- Tagsten oplægges iht. anvisninger for tagst
  1
enstype.\P- Indvendigt skal det sikres at dampspærren udføres korrekt.
  7
ARIAL
 73
     1
 44
1.0
  0
INSERT
  5
D35B
330
18
100
AcDbEntity
  8
LAFARGE99-M--1
100
AcDbBlockReference
  2
Mursten
 10
-1352.574912784651
 20
998.3780769774188
 30
0.0
 41
-1.0
 50
180.0
  0
INSERT
  5
D35C
330
18
100
AcDbEntity
  8
LAFARGE99-M--1
100
AcDbBlockReference
  2
Mursten
 10
-1352.574912784651
 20
876.7114103107527
 30
0.0
  0
INSERT
  5
D35D
330
18
100
AcDbEntity
  8
LAFARGE99-M--1
100
AcDbBlockReference
  2
Mursten
 10
-1352.574912784651
 20
810.0447436440861
 30
0.0
  0
INSERT
  5
D35E
330
18
100
AcDbEntity
  8
LAFARGE99-M--1
100
AcDbBlockReference
  2
Mursten
 10
-1352.574912784651
 20
743.3780769774195
 30
0.0
  0
INSERT
  5
D35F
330
18
100
AcDbEntity
  8
LAFARGE99-M--1
100
AcDbBlockReference
  2
Mursten
 10
-1352.574912784651
 20
676.711410310753
 30
0.0
  0
LINE
  5
D360
330
18
100
AcDbEntity
  8
LAFARGE99-E--1
  6
Continuous
 62
    30
100
AcDbLine
 10
-1411.574912784651
 20
870.7721775730686
 30
0.0
 11
-1161.574912784651
 21
872.7721775730685
 31
0.0
  0
LINE
  5
D361
330
18
100
AcDbEntity
  8
LAFARGE99-E--1
  6
Continuous
 62
    30
100
AcDbLine
 10
-1411.574912784652
 20
669.3636072695376
 30
0.0
 11
-1161.574912784651
 21
671.3636072695376
 31
0.0
  0
LINE
  5
D363
330
18
100
AcDbEntity
  8
LAFARGE99--S-2
100
AcDbLine
 10
-1120.691862145928
 20
762.8099874338227
 30
0.0
 11
-1220.691862145928
 21
820.545014352786
 31
0.0
  0
LINE
  5
D364
330
18
100
AcDbEntity
  8
LAFARGE99--S-2
100
AcDbLine
 10
-1220.691862145928
 20
705.0749605148598
 30
0.0
 11
-1120.691862145928
 21
762.8099874338227
 31
0.0
  0
LINE
  5
D365
330
18
100
AcDbEntity
  8
LAFARGE99--S-2
100
AcDbLine
 10
-1120.691862145928
 20
878.2800412717488
 30
0.0
 11
-1220.691862145928
 21
936.0150681907121
 31
0.0
  0
LINE
  5
D366
330
18
100
AcDbEntity
  8
LAFARGE99--S-2
100
AcDbLine
 10
-1220.691862145928
 20
820.545014352786
 30
0.0
 11
-1120.691862145928
 21
878.2800412717488
 31
0.0
  0
LINE
  5
D367
330
18
100
AcDbEntity
  8
LAFARGE99--S-2
100
AcDbLine
 10
-1120.691862145928
 20
993.7500951096749
 30
0.0
 11
-1220.691862145927
 21
1045.958568741937
 31
0.0
  0
LINE
  5
D368
330
18
100
AcDbEntity
  8
LAFARGE99--S-2
100
AcDbLine
 10
-1220.691862145928
 20
936.0150681907121
 30
0.0
 11
-1120.691862145928
 21
993.7500951096749
 31
0.0
  0
LINE
  5
D36A
330
18
100
AcDbEntity
  8
LAFARGE99-I--
  6
Continuous
 48
0.5
100
AcDbLine
 10
-1345.574912784651
 20
1045.958568741937
 30
0.0
 11
-1345.574912784653
 21
623.6043652595331
 31
0.0
  0
LWPOLYLINE
  5
D36B
330
18
100
AcDbEntity
  8
LAFARGE99-M--1
100
AcDbPolyline
 90
        4
 70
     1
 43
0.0
 10
-1457.574912784651
 20
676.711410310753
 10
-1352.574912784651
 20
676.711410310753
 10
-1352.574912784651
 20
665.0447436440865
 10
-1457.574912784651
 20
665.0447436440865
1001
ACAD
1000
ASC_BOUNDS
1002
{
1070
    19
1002
}
  0
LINE
  5
D36C
330
18
100
AcDbEntity
  8
LAFARGE99-M--1
100
AcDbLine
 10
-1460.574912784651
 20
623.6043652595333
 30
0.0
 11
-1460.574912784651
 21
665.0447436440865
 31
0.0
1001
ACAD
1000
ASC_BOUNDS
1002
{
1070
    19
1002
}
  0
LINE
  5
D36D
330
18
100
AcDbEntity
  8
LAFARGE99-M--1
100
AcDbLine
 10
-1460.574912784651
 20
665.0447436440865
 30
0.0
 11
-1352.574912784651
 21
665.0447436440865
 31
0.0
1001
ACAD
1000
ASC_BOUNDS
1002
{
1070
    19
1002
}
  0
LINE
  5
D36E
330
18
100
AcDbEntity
  8
LAFARGE99-M--1
100
AcDbLine
 10
-1352.574912784652
 20
665.0447436440865
 30
0.0
 11
-1352.574912784652
 21
623.6043652595333
 31
0.0
1001
ACAD
1000
ASC_BOUNDS
1002
{
1070
    19
1002
}
  0
LWPOLYLINE
  5
D372
330
18
100
AcDbEntity
  8
LAFARGE99-M--1
100
AcDbPolyline
 90
        4
 70
     1
 43
0.0
 10
-1457.574912784651
 20
1010.044743644085
 10
-1352.574912784651
 20
1010.044743644085
 10
-1352.574912784651
 20
998.3780769774188
 10
-1457.574912784651
 20
998.3780769774188
1001
ACAD
1000
ASC_BOUNDS
1002
{
1070
    19
1002
}
  0
LINE
  5
D373
330
18
100
AcDbEntity
  8
LAFARGE99-M--1
100
AcDbLine
 10
-1460.574912784651
 20
1010.044743644085
 30
0.0
 11
-1460.574912784651
 21
1045.958568741937
 31
0.0
1001
ACAD
1000
ASC_BOUNDS
1002
{
1070
    19
1002
}
  0
LINE
  5
D374
330
18
100
AcDbEntity
  8
LAFARGE99-M--1
100
AcDbLine
 10
-1352.574912784651
 20
1045.958568741937
 30
0.0
 11
-1352.574912784651
 21
1010.044743644085
 31
0.0
1001
ACAD
1000
ASC_BOUNDS
1002
{
1070
    19
1002
}
  0
LINE
  5
D38E
330
18
100
AcDbEntity
  8
LAFARGE99-M--1
100
AcDbLine
 10
-1460.574912784651
 20
1045.958568741937
 30
0.0
 11
-1352.574912784651
 21
1045.958568741937
 31
0.0
  0
LINE
  5
D38F
330
18
100
AcDbEntity
  8
LAFARGE99-M--1
100
AcDbLine
 10
-1460.574912784651
 20
1010.044743644085
 30
0.0
 11
-1457.574912784651
 21
1010.044743644085
 31
0.0
  0
HATCH
  5
D3E1
330
18
100
AcDbEntity
  8
LAFARGE99--S-2
100
AcDbHatch
 10
0.0
 20
0.0
 30
0.0
210
0.0
220
0.0
230
1.0
  2
_USER
 70
     0
 71
     0
 91
       13
 92
        1
 93
        4
 72
     1
 10
-1352.574912784652
 20
665.0447436440865
 11
-1460.574912784651
 21
665.0447436440865
 72
     1
 10
-1460.574912784651
 20
665.0447436440865
 11
-1460.574912784651
 21
623.6043652595333
 72
     1
 10
-1460.574912784651
 20
623.6043652595333
 11
-1352.574912784652
 21
623.6043652595333
 72
     1
 10
-1352.574912784652
 20
623.6043652595333
 11
-1352.574912784652
 21
665.0447436440865
 97
        0
 92
        1
 93
        4
 72
     1
 10
-1352.574912784651
 20
676.711410310753
 11
-1457.574912784651
 21
676.711410310753
 72
     1
 10
-1457.574912784651
 20
676.711410310753
 11
-1457.574912784651
 21
665.0447436440865
 72
     1
 10
-1457.574912784651
 20
665.0447436440865
 11
-1352.574912784652
 21
665.0447436440865
 72
     1
 10
-1352.574912784652
 20
665.0447436440865
 11
-1352.574912784651
 21
676.711410310753
 97
        0
 92
        1
 93
        4
 72
     1
 10
-1352.574912784652
 20
731.711410310753
 11
-1460.574912784651
 21
731.711410310753
 72
     1
 10
-1460.574912784651
 20
731.711410310753
 11
-1460.574912784651
 21
676.711410310753
 72
     1
 10
-1460.574912784651
 20
676.711410310753
 11
-1352.574912784651
 21
676.711410310753
 72
     1
 10
-1352.574912784651
 20
676.711410310753
 11
-1352.574912784652
 21
731.711410310753
 97
        0
 92
        1
 93
        4
 72
     1
 10
-1352.574912784651
 20
743.3780769774195
 11
-1457.574912784651
 21
743.3780769774196
 72
     1
 10
-1457.574912784651
 20
743.3780769774196
 11
-1457.574912784651
 21
731.711410310753
 72
     1
 10
-1457.574912784651
 20
731.711410310753
 11
-1352.574912784651
 21
731.711410310753
 72
     1
 10
-1352.574912784651
 20
731.711410310753
 11
-1352.574912784651
 21
743.3780769774195
 97
        0
 92
        1
 93
        4
 72
     1
 10
-1352.574912784651
 20
798.3780769774195
 11
-1460.574912784651
 21
798.3780769774195
 72
     1
 10
-1460.574912784651
 20
798.3780769774195
 11
-1460.574912784651
 21
743.3780769774195
 72
     1
 10
-1460.574912784651
 20
743.3780769774195
 11
-1352.574912784651
 21
743.3780769774195
 72
     1
 10
-1352.574912784651
 20
743.3780769774195
 11
-1352.574912784651
 21
798.3780769774195
 97
        0
 92
        1
 93
        4
 72
     1
 10
-1352.574912784651
 20
810.0447436440861
 11
-1457.574912784651
 21
810.0447436440861
 72
     1
 10
-1457.574912784651
 20
810.0447436440861
 11
-1457.574912784651
 21
798.3780769774195
 72
     1
 10
-1457.574912784651
 20
798.3780769774195
 11
-1352.574912784652
 21
798.3780769774195
 72
     1
 10
-1352.574912784652
 20
798.3780769774195
 11
-1352.574912784651
 21
810.0447436440861
 97
        0
 92
        1
 93
        4
 72
     1
 10
-1352.574912784651
 20
865.0447436440861
 11
-1460.574912784651
 21
865.0447436440861
 72
     1
 10
-1460.574912784651
 20
865.0447436440861
 11
-1460.574912784651
 21
810.0447436440861
 72
     1
 10
-1460.574912784651
 20
810.0447436440861
 11
-1352.574912784651
 21
810.0447436440861
 72
     1
 10
-1352.574912784651
 20
810.0447436440861
 11
-1352.574912784651
 21
865.0447436440861
 97
        0
 92
        1
 93
        4
 72
     1
 10
-1352.574912784651
 20
876.7114103107527
 11
-1457.574912784651
 21
876.7114103107527
 72
     1
 10
-1457.574912784651
 20
876.7114103107527
 11
-1457.574912784651
 21
865.0447436440861
 72
     1
 10
-1457.574912784651
 20
865.0447436440861
 11
-1352.574912784652
 21
865.0447436440861
 72
     1
 10
-1352.574912784652
 20
865.0447436440861
 11
-1352.574912784651
 21
876.7114103107527
 97
        0
 92
        1
 93
        4
 72
     1
 10
-1352.574912784651
 20
931.7114103107526
 11
-1460.574912784651
 21
931.7114103107526
 72
     1
 10
-1460.574912784651
 20
931.7114103107526
 11
-1460.574912784651
 21
876.7114103107527
 72
     1
 10
-1460.574912784651
 20
876.7114103107527
 11
-1352.574912784651
 21
876.7114103107527
 72
     1
 10
-1352.574912784651
 20
876.7114103107527
 11
-1352.574912784651
 21
931.7114103107526
 97
        0
 92
        1
 93
        4
 72
     1
 10
-1352.574912784652
 20
943.3780769774191
 11
-1457.574912784651
 21
943.3780769774191
 72
     1
 10
-1457.574912784651
 20
943.3780769774191
 11
-1457.574912784651
 21
931.7114103107526
 72
     1
 10
-1457.574912784651
 20
931.7114103107526
 11
-1352.574912784652
 21
931.7114103107526
 72
     1
 10
-1352.574912784652
 20
931.7114103107526
 11
-1352.574912784652
 21
943.3780769774191
 97
        0
 92
        1
 93
        5
 72
     1
 10
-1352.574912784652
 20
998.378076977419
 11
-1457.574912784651
 21
998.3780769774188
 72
     1
 10
-1457.574912784651
 20
998.3780769774188
 11
-1460.574912784651
 21
998.3780769774188
 72
     1
 10
-1460.574912784651
 20
998.3780769774188
 11
-1460.574912784651
 21
943.3780769774189
 72
     1
 10
-1460.574912784651
 20
943.3780769774189
 11
-1352.574912784651
 21
943.3780769774189
 72
     1
 10
-1352.574912784651
 20
943.3780769774189
 11
-1352.574912784652
 21
998.378076977419
 97
        0
 92
        1
 93
        4
 72
     1
 10
-1352.574912784651
 20
1010.044743644085
 11
-1457.574912784651
 21
1010.044743644085
 72
     1
 10
-1457.574912784651
 20
1010.044743644085
 11
-1457.574912784651
 21
998.378076977419
 72
     1
 10
-1457.574912784651
 20
998.378076977419
 11
-1352.574912784652
 21
998.3780769774188
 72
     1
 10
-1352.574912784652
 20
998.3780769774188
 11
-1352.574912784651
 21
1010.044743644085
 97
        0
 92
        1
 93
        4
 72
     1
 10
-1352.574912784651
 20
1045.958568741937
 11
-1460.574912784651
 21
1045.958568741937
 72
     1
 10
-1460.574912784651
 20
1045.958568741937
 11
-1460.574912784651
 21
1010.044743644085
 72
     1
 10
-1460.574912784651
 20
1010.044743644085
 11
-1352.574912784651
 21
1010.044743644085
 72
     1
 10
-1352.574912784651
 20
1010.044743644085
 11
-1352.574912784651
 21
1045.958568741937
 97
        0
 75
     0
 76
     0
 52
45.0
 41
16.0
 77
     0
 78
     1
 53
45.0
 43
154.2820234465678
 44
342.3980117512999
 45
-11.31370849898476
 46
11.31370849898476
 79
     0
 98
       13
 10
-1441.252283629369
 20
641.2191161135649
 10
-1432.973534433889
 20
669.8632245743754
 10
-1423.421138980387
 20
708.6918929843448
 10
-1429.789409085171
 20
734.1533241165923
 10
-1429.789409085171
 20
755.1589969858575
 10
-1424.694785238405
 20
802.8991819217896
 10
-1422.784306147704
 20
841.7278503317572
 10
-1421.510659889686
 20
869.7354308291012
 10
-1421.510659889686
 20
894.5603214941399
 10
-1424.057971813073
 20
938.4812761305582
 10
-1420.873827057004
 20
969.6715214527229
 10
-1420.873827057004
 20
1003.407916139982
 10
-1419.60018079899
 20
1020.594383717218
  0
LINE
  5
D3FC
330
18
100
AcDbEntity
  8
LAFARGE99--S-2
100
AcDbLine
 10
-1120.691862145928
 20
647.3399335958966
 30
0.0
 11
-1220.691862145928
 21
705.0749605148598
 31
0.0
  0
LINE
  5
D3FD
330
18
100
AcDbEntity
  8
LAFARGE99--S-2
100
AcDbLine
 10
-1161.803072451033
 20
623.6043652595331
 30
0.0
 11
-1120.691862145928
 21
647.3399335958966
 31
0.0
  0
LWPOLYLINE
  5
D41E
330
18
100
AcDbEntity
  8
LAFARGE99-I--
  6
Continuous
 48
0.5
100
AcDbPolyline
 90
       21
 70
     0
 43
0.0
 10
-1325.376475217369
 20
623.6043652595333
 42
-0.048353466605249
 10
-1320.574912784652
 20
624.069797845276
 10
-1245.574912784652
 20
624.069797845276
 42
0.4142135623730685
 10
-1220.574912784652
 20
649.069797845276
 42
0.414213562373099
 10
-1245.574912784652
 20
674.0697978452759
 10
-1320.574912784652
 20
674.0697978452759
 42
-0.9999999999999998
 10
-1320.574912784652
 20
724.0697978452759
 10
-1245.574912784652
 20
724.0697978452759
 42
0.9999999999999998
 10
-1245.574912784652
 20
774.0697978452759
 10
-1320.574912784652
 20
774.0697978452759
 42
-0.9999999999999998
 10
-1320.574912784652
 20
824.0697978452759
 10
-1245.574912784652
 20
824.0697978452759
 42
0.9999999999999998
 10
-1245.574912784652
 20
874.0697978452759
 10
-1320.574912784652
 20
874.0697978452759
 42
-0.9999999999999998
 10
-1320.574912784652
 20
924.0697978452759
 10
-1245.574912784652
 20
924.0697978452759
 42
0.9999999999999998
 10
-1245.574912784652
 20
974.0697978452759
 10
-1320.574912784652
 20
974.0697978452759
 42
-1.0
 10
-1320.574912784652
 20
1024.069797845275
 10
-1245.574912784652
 20
1024.069797845275
 42
0.3915507816094373
 10
-1220.691862145928
 20
1045.958568741937
 42
0.3861478222412903
  0
LWPOLYLINE
  5
D47D
330
18
100
AcDbEntity
  8
LAFARGE99-T--
100
AcDbPolyline
 90
        4
 70
     1
 43
0.0
 10
-1105.691862145928
 20
856.4851220286378
 10
-1060.691862145928
 20
856.4851220286378
 10
-1060.691862145928
 20
1066.485122028661
 10
-1105.691862145928
 20
1066.485122028661
  0
LINE
  5
D480
330
18
100
AcDbEntity
  8
LAFARGE99--S-2
100
AcDbLine
 10
-1105.691862145928
 20
856.485122028638
 30
0.0
 11
-1060.691862145928
 21
1066.485122028661
 31
0.0
  0
LINE
  5
D482
330
18
100
AcDbEntity
  8
LAFARGE99--S-2
100
AcDbLine
 10
-1060.691862145928
 20
856.485122028638
 30
0.0
 11
-1105.691862145927
 21
1066.485122028661
 31
0.0
  0
LINE
  5
D4DC
330
18
100
AcDbEntity
  8
LAFARGE99-I--
  6
Continuous
 48
0.5
100
AcDbLine
 10
-696.5753032861745
 20
951.4851220286384
 30
0.0
 11
-1060.691862145928
 21
951.4851220286384
 31
0.0
  0
LWPOLYLINE
  5
D4DE
330
18
100
AcDbEntity
  8
LAFARGE99-I--
  6
Continuous
 48
0.5
100
AcDbPolyline
 90
       20
 70
     0
 43
0.0
 10
-696.5753032861745
 20
948.5676384866238
 42
0.5900596750375642
 10
-725.6922526474503
 20
932.4851220286385
 10
-725.6922526474506
 20
875.4851220286385
 42
-0.9999999999999998
 10
-763.6922526474507
 20
875.4851220286385
 10
-763.6922526474507
 20
932.4851220286383
 42
0.9999999999999998
 10
-801.6922526474507
 20
932.4851220286385
 10
-801.6922526474498
 20
875.4851220286385
 42
-0.9999999999999998
 10
-839.6922526474501
 20
875.4851220286381
 10
-839.6922526474508
 20
932.4851220286385
 42
0.9999999999999998
 10
-877.6922526474502
 20
932.4851220286385
 10
-877.6922526474503
 20
875.4851220286383
 42
-0.9999999999999998
 10
-915.6922526474502
 20
875.4851220286383
 10
-915.6922526474501
 20
932.4851220286385
 42
0.9999999999999998
 10
-953.6922526474505
 20
932.4851220286383
 10
-953.6922526474503
 20
875.4851220286385
 42
-0.9999999999999998
 10
-991.6922526474508
 20
875.4851220286381
 10
-991.6922526474506
 20
932.4851220286383
 42
0.9999999999999998
 10
-1029.69225264745
 20
932.4851220286385
 10
-1029.692252647451
 20
875.4851220286383
 42
-0.6319612015737138
 10
-1060.691862145928
 20
860.7538840669459
 42
-0.5405680564355246
  0
LWPOLYLINE
  5
D4F9
330
18
100
AcDbEntity
  8
LAFARGE99-I--
  6
Continuous
 48
0.5
100
AcDbPolyline
 90
       20
 70
     0
 43
0.0
 10
-696.5753032861743
 20
1043.567638486624
 42
0.5900596750375703
 10
-725.6922526474501
 20
1027.485122028639
 10
-725.6922526474503
 20
970.4851220286391
 42
-0.9999999999999998
 10
-763.6922526474505
 20
970.4851220286391
 10
-763.6922526474505
 20
1027.485122028639
 42
0.9999999999999998
 10
-801.6922526474505
 20
1027.485122028639
 10
-801.6922526474496
 20
970.4851220286391
 42
-0.9999999999999998
 10
-839.6922526474499
 20
970.4851220286386
 10
-839.6922526474506
 20
1027.485122028639
 42
0.9999999999999998
 10
-877.6922526474498
 20
1027.485122028639
 10
-877.6922526474502
 20
970.4851220286389
 42
-0.9999999999999998
 10
-915.6922526474501
 20
970.4851220286389
 10
-915.6922526474499
 20
1027.485122028639
 42
0.9999999999999998
 10
-953.6922526474503
 20
1027.485122028639
 10
-953.6922526474501
 20
970.4851220286391
 42
-0.9999999999999998
 10
-991.6922526474506
 20
970.4851220286386
 10
-991.6922526474504
 20
1027.485122028639
 42
0.9999999999999998
 10
-1029.69225264745
 20
1027.485122028639
 10
-1029.69225264745
 20
970.4851220286389
 42
-0.6319612015736997
 10
-1060.691862145928
 20
955.7538840669456
 42
-0.5405680564355228
  0
LINE
  5
D513
330
18
100
AcDbEntity
  8
LAFARGE99-O--
100
AcDbLine
 10
-696.5753032861745
 20
793.4851220286375
 30
0.0
 11
-1120.691862145928
 21
793.4851220286375
 31
0.0
  0
LINE
  5
D514
330
18
100
AcDbEntity
  8
LAFARGE99-O--
100
AcDbLine
 10
-1120.691862145928
 20
780.4851220286375
 30
0.0
 11
-696.5753032861745
 21
780.4851220286375
 31
0.0
  0
LINE
  5
D515
330
18
100
AcDbEntity
  8
LAFARGE99-O--
100
AcDbLine
 10
-696.5753032861745
 20
806.4851220286376
 30
0.0
 11
-1120.691862145928
 21
806.485122028638
 31
0.0
  0
LINE
  5
D530
330
18
100
AcDbEntity
  8
LAFARGE99--S-2
100
AcDbLine
 10
-1120.691862145928
 20
856.485122028638
 30
0.0
 11
-1070.691862145928
 21
806.485122028638
 31
0.0
  0
LINE
  5
D531
330
18
100
AcDbEntity
  8
LAFARGE99--S-2
100
AcDbLine
 10
-1070.691862145928
 20
856.485122028638
 30
0.0
 11
-1120.691862145928
 21
806.485122028638
 31
0.0
  0
LWPOLYLINE
  5
D532
330
18
100
AcDbEntity
  8
LAFARGE99-T--
100
AcDbPolyline
 90
        4
 70
     1
 43
0.0
 10
-1120.691862145928
 20
806.4851220286378
 10
-1070.691862145928
 20
806.4851220286378
 10
-1070.691862145928
 20
856.4851220286378
 10
-1120.691862145928
 20
856.4851220286378
  0
LWPOLYLINE
  5
D533
330
18
100
AcDbEntity
  8
LAFARGE99-I--
  6
Continuous
 48
0.5
100
AcDbPolyline
 90
       39
 70
     0
 43
0.0
 10
-696.5753032861745
 20
815.1300722366828
 42
-0.9342474505978536
 10
-716.4830699397313
 20
816.4851220286378
 10
-716.4830699397313
 20
846.485122028638
 42
0.9999999999999998
 10
-736.4830699397312
 20
846.485122028638
 10
-736.4830699397312
 20
816.4851220286378
 42
-0.9999999999999998
 10
-756.4830699397313
 20
816.4851220286379
 10
-756.4830699397313
 20
846.485122028638
 42
0.9999999999999998
 10
-776.4830699397313
 20
846.4851220286378
 10
-776.4830699397313
 20
816.4851220286381
 42
-0.9999999999999998
 10
-796.4830699397313
 20
816.4851220286378
 10
-796.4830699397313
 20
846.4851220286378
 42
0.9999999999999998
 10
-816.4830699397313
 20
846.485122028638
 10
-816.4830699397313
 20
816.4851220286378
 42
-0.4142135623731184
 10
-826.4830699397313
 20
806.485122028638
 42
-0.4142135623731268
 10
-836.4830699397312
 20
816.4851220286378
 10
-836.4830699397312
 20
846.4851220286377
 42
0.9999999999999998
 10
-856.4830699397315
 20
846.4851220286375
 10
-856.4830699397314
 20
816.4851220286378
 42
-0.9999999999999998
 10
-876.4830699397315
 20
816.4851220286376
 10
-876.4830699397315
 20
846.4851220286373
 42
1.0
 10
-896.4830699397317
 20
846.485122028638
 10
-896.4830699397319
 20
816.4851220286379
 42
-0.9999999999999998
 10
-916.4830699397317
 20
816.4851220286379
 10
-916.4830699397317
 20
846.4851220286377
 42
0.9999999999999998
 10
-936.4830699397318
 20
846.4851220286378
 10
-936.4830699397312
 20
816.4851220286378
 42
-0.9999999999999998
 10
-956.4830699397317
 20
816.4851220286378
 10
-956.4830699397317
 20
846.485122028638
 42
0.9999999999999998
 10
-976.4830699397318
 20
846.4851220286378
 10
-976.4830699397318
 20
816.4851220286378
 42
-0.9999999999999998
 10
-996.4830699397317
 20
816.4851220286378
 10
-996.4830699397317
 20
846.485122028638
 42
0.9999999999999998
 10
-1016.483069939732
 20
846.4851220286377
 10
-1016.483069939732
 20
816.4851220286379
 42
-0.9999999999999998
 10
-1036.483069939731
 20
816.4851220286378
 10
-1036.483069939731
 20
846.4851220286377
 42
0.9999999999999998
 10
-1056.483069939732
 20
846.485122028638
 10
-1056.483069939732
 20
816.4851220286378
 42
-0.54799514149984
 10
-1070.691862145928
 20
807.4139551706721
  0
LWPOLYLINE
  5
D534
330
18
100
AcDbEntity
  8
LAFARGE99-A--1
100
AcDbPolyline
 90
        3
 70
     0
 43
0.0
 10
-696.5753032861743
 20
856.4851220286378
 10
-1120.691862145928
 20
856.4851220286378
 10
-1120.691862145928
 20
793.4851220286375
  0
LWPOLYLINE
  5
D675
330
18
100
AcDbEntity
  8
LAFARGE99-T--
 62
    30
100
AcDbPolyline
 90
        4
 70
     1
 43
0.0
 10
-1735.574912784653
 20
905.4851220286408
 10
-1460.574912784652
 20
905.4851220286407
 10
-1460.574912784652
 20
926.4851220286406
 10
-1735.574912784653
 20
926.4851220286406
  0
LWPOLYLINE
  5
D676
330
18
100
AcDbEntity
  8
LAFARGE99-T--
 62
     1
100
AcDbPolyline
 90
        4
 70
     1
 43
0.0
 10
-1760.574912784652
 20
1066.485122028663
 10
-1760.574912784652
 20
901.4851220286638
 10
-1735.574912784653
 20
901.485122028664
 10
-1735.574912784652
 20
1066.485122028664
  0
LINE
  5
D679
330
18
100
AcDbEntity
  8
LAFARGE99--S-2
100
AcDbLine
 10
-1760.574912784653
 20
901.4851220286642
 30
0.0
 11
-1735.574912784648
 21
1066.485122028664
 31
0.0
  0
LINE
  5
D67A
330
18
100
AcDbEntity
  8
LAFARGE99--S-2
100
AcDbLine
 10
-1760.574912784652
 20
1066.485122028663
 30
0.0
 11
-1735.574912784653
 21
901.4851220286642
 31
0.0
  0
INSERT
  5
D6E7
330
18
100
AcDbEntity
  8
LAFARGE99-T--
100
AcDbBlockReference
  2
A$C3E890BC7
 10
-1710.574912784653
 20
926.4851220286404
 30
0.0
 50
90.0
  0
LWPOLYLINE
  5
D733
330
18
100
AcDbEntity
  8
LAFARGE99-T--
 62
     1
100
AcDbPolyline
 90
        4
 70
     1
 43
0.0
 10
-1785.57491278465
 20
1118.404469684995
 10
-1785.574912784649
 20
991.4851220286605
 10
-1760.574912784651
 20
991.4851220286605
 10
-1760.57491278465
 20
1101.482402552058
  0
LINE
  5
D734
330
18
100
AcDbEntity
  8
LAFARGE99--S-2
100
AcDbLine
 10
-1785.574912784649
 20
991.4851220286605
 30
0.0
 11
-1760.57491278465
 21
1101.482402552058
 31
0.0
  0
LINE
  5
D735
330
18
100
AcDbEntity
  8
LAFARGE99--S-2
100
AcDbLine
 10
-1785.57491278465
 20
1118.404469684995
 30
0.0
 11
-1760.574912784651
 21
991.4851220286605
 31
0.0
  0
LINE
  5
D74F
330
18
100
AcDbEntity
  8
LAFARGE99-T--
 62
    30
100
AcDbLine
 10
-696.5753032861739
 20
1104.48512202866
 30
0.0
 11
-1760.57491278465
 21
1104.485122028661
 31
0.0
  0
LINE
  5
D751
330
18
100
AcDbEntity
  8
LAFARGE99-T--
 62
    30
100
AcDbLine
 10
-1760.574912784651
 20
1066.485122028661
 30
0.0
 11
-696.5753032861739
 21
1066.485122028661
 31
0.0
  0
MTEXT
  5
E156
330
18
100
AcDbEntity
  8
LAFARGE99--T-
100
AcDbMText
 10
-901.0853601865623
 20
540.9405327453835
 30
0.0
 40
17.5
 41
262.2987925724408
 71
     1
 72
     5
  1
Dampspærre, \P0,20 mm PE-folie\Pklemmes & fuges til mur
  7
ARIAL
 73
     1
 44
1.0
  0
MTEXT
  5
E157
330
18
100
AcDbEntity
  8
LAFARGE99--T-
100
AcDbMText
 10
-901.0853601865623
 20
674.4171944394588
 30
0.0
 40
17.5
 41
271.7149172385759
 71
     1
 72
     5
  1
Forskalling, 50 x 50 mm. under spær imellem øvrig forskalling
  7
ARIAL
 73
     1
 44
1.0
  0
MTEXT
  5
E158
330
18
100
AcDbEntity
  8
LAFARGE99--T-
100
AcDbMText
 10
-901.0853601865623
 20
575.9405327453841
 30
0.0
 40
17.5
 41
801.4820576700781
 71
     1
 72
     5
  1
Loftbeklædning
  7
ARIAL
 73
     1
 44
1.0
  0
LINE
  5
E159
330
18
100
AcDbEntity
  8
LAFARGE99--T-
 62
     8
100
AcDbLine
 10
-1008.962080153272
 20
567.2610094678455
 30
0.0
 11
-917.9539077938885
 21
567.2610094678439
 31
0.0
  0
LINE
  5
E15A
330
18
100
AcDbEntity
  8
LAFARGE99--T-
 62
     8
100
AcDbLine
 10
-1021.059089909605
 20
665.7376711619202
 30
0.0
 11
-917.9539077938885
 21
665.7376711619185
 31
0.0
  0
LINE
  5
E15B
330
18
100
AcDbEntity
  8
LAFARGE99--T-
 62
     8
100
AcDbLine
 10
-1020.464461415709
 20
532.2610094678459
 30
0.0
 11
-917.9539077938885
 21
532.2610094678434
 31
0.0
  0
MTEXT
  5
E15C
330
18
100
AcDbEntity
  8
LAFARGE99--T-
100
AcDbMText
 10
-901.0853601865623
 20
709.4171944394591
 30
0.0
 40
17.5
 41
801.4820576700781
 71
     1
 72
     5
  1
Mineraluld
  7
ARIAL
 73
     1
 44
1.0
  0
LINE
  5
E15D
330
18
100
AcDbEntity
  8
LAFARGE99--T-
 62
     8
100
AcDbLine
 10
-944.956652333006
 20
700.7376711619193
 30
0.0
 11
-917.9539077938885
 21
700.7376711619188
 31
0.0
  0
LINE
  5
E183
330
18
100
AcDbEntity
  8
LAFARGE99--T-
 62
     8
100
AcDbLine
 10
-1043.017531694146
 20
985.3997734115125
 30
0.0
 11
-944.956652333006
 21
700.7376711619193
 31
0.0
  0
LWPOLYLINE
  5
E184
330
18
100
AcDbEntity
  8
LAFARGE99--T-
 62
     8
100
AcDbPolyline
 90
        2
 70
     1
 43
3.281249999999998
 10
-1041.441527155
 20
985.8556901618284
 42
-1.0
 10
-1044.593536233291
 20
984.9438566611977
 42
-1.0
  0
LWPOLYLINE
  5
E185
330
18
100
AcDbEntity
  8
LAFARGE99--T-
 62
     8
100
AcDbPolyline
 90
        2
 70
     1
 43
3.281249999999998
 10
-1011.904886479669
 20
900.1134218606654
 42
-1.0
 10
-1015.05689555796
 20
899.201588360035
 42
-1.0
  0
LINE
  5
E190
330
18
100
AcDbEntity
  8
LAFARGE99--T-
 62
     8
100
AcDbLine
 10
-1077.844663774364
 20
830.5811942784137
 30
0.0
 11
-1021.059089909605
 21
665.7376711619202
 31
0.0
  0
LWPOLYLINE
  5
E191
330
18
100
AcDbEntity
  8
LAFARGE99--T-
 62
     8
100
AcDbPolyline
 90
        2
 70
     1
 43
3.281249999999998
 10
-1076.268659235219
 20
831.0371110287293
 42
-1.0
 10
-1079.42066831351
 20
830.1252775280987
 42
-1.0
  0
LINE
  5
E19A
330
18
100
AcDbEntity
  8
LAFARGE99--T-
 62
     8
100
AcDbLine
 10
-1120.785426880501
 20
823.4839427616032
 30
0.0
 11
-1020.464461415709
 21
532.2610094678459
 31
0.0
  0
LWPOLYLINE
  5
E19B
330
18
100
AcDbEntity
  8
LAFARGE99--T-
 62
     8
100
AcDbPolyline
 90
        2
 70
     1
 43
3.281249999999998
 10
-1119.209422341355
 20
823.9398595119189
 42
-1.0
 10
-1122.361431419646
 20
823.0280260112882
 42
-1.0
  0
LINE
  5
E1A4
330
18
100
AcDbEntity
  8
LAFARGE99--T-
 62
     8
100
AcDbLine
 10
-1086.365528703542
 20
791.9564081756369
 30
0.0
 11
-1008.962080153272
 21
567.2610094678455
 31
0.0
  0
LWPOLYLINE
  5
E1A5
330
18
100
AcDbEntity
  8
LAFARGE99--T-
 62
     8
100
AcDbPolyline
 90
        2
 70
     1
 43
3.281249999999998
 10
-1084.789524164397
 20
792.4123249259524
 42
-1.0
 10
-1087.941533242688
 20
791.5004914253219
 42
-1.0
  0
LWPOLYLINE
  5
E1AE
330
18
100
AcDbEntity
  8
LAFARGE99--T-
 62
     8
100
AcDbPolyline
 90
        2
 70
     1
 43
3.281249999999998
 10
-987.390158143885
 20
828.9493230925771
 42
-1.0
 10
-990.5421672221764
 20
828.0374895919466
 42
-1.0
  0
LINE
  5
E2EE
330
18
100
AcDbEntity
  8
LAFARGE99--T-
 62
     8
100
AcDbLine
 10
-1738.43298801154
 20
1110.437179067613
 30
0.0
 11
-1786.178612284427
 21
1249.038524143102
 31
0.0
  0
LWPOLYLINE
  5
E2EF
330
18
100
AcDbEntity
  8
LAFARGE99--T-
 62
     8
100
AcDbPolyline
 90
        2
 70
     1
 43
3.281249999999998
 10
-1740.008992550685
 20
1109.981262317297
 42
-1.0
 10
-1736.856983472394
 20
1110.893095817928
 42
-1.0
  0
MTEXT
  5
E399
330
18
100
AcDbEntity
  8
LAFARGE99--T-
100
AcDbMText
 10
-2093.965615893522
 20
837.4021094783209
 30
0.0
 40
17.5
 41
567.0110025983363
 71
     1
 72
     5
  1
Hjælpespær til fastholdelse af udhæng.
  7
ARIAL
 73
     1
 44
1.0
  0
LINE
  5
E39A
330
18
100
AcDbEntity
  8
LAFARGE99--T-
 62
     8
100
AcDbLine
 10
-1653.472561833927
 20
828.7225862007808
 30
0.0
 11
-1551.299806929548
 21
828.7225862007812
 31
0.0
  0
MTEXT
  5
E39B
330
18
100
AcDbEntity
  8
LAFARGE99--T-
100
AcDbMText
 10
-2092.884068346148
 20
1257.718047420642
 30
0.0
 40
17.5
 41
291.2709462580824
 71
     1
 72
     5
  1
B&C Danflock afslutningssten
  7
ARIAL
 73
     1
 44
1.0
  0
LINE
  5
E39C
330
18
100
AcDbEntity
  8
LAFARGE99--T-
 62
     8
100
AcDbLine
 10
-1917.394780026943
 20
1249.0385241431
 30
0.0
 11
-1786.178612284427
 21
1249.038524143102
 31
0.0
  0
LINE
  5
E4BA
102
{ACAD_REACTORS
330
E4C1
102
}
330
18
100
AcDbEntity
  8
LAFARGE99--M-
 62
     8
100
AcDbLine
 10
-1785.57491278465
 20
1140.43272940774
 30
0.0
 11
-1785.57491278465
 21
1158.786577909888
 31
0.0
  0
LINE
  5
E4BB
102
{ACAD_REACTORS
330
E4C1
102
}
330
18
100
AcDbEntity
  8
LAFARGE99--M-
 62
     8
100
AcDbLine
 10
-1815.574912784649
 20
1140.43272940774
 30
0.0
 11
-1815.574912784649
 21
1158.786577909888
 31
0.0
  0
LINE
  5
E4BC
102
{ACAD_REACTORS
330
E4C1
102
}
330
18
100
AcDbEntity
  8
LAFARGE99--M-
 62
     8
100
AcDbLine
 10
-1785.57491278465
 20
1148.786577909888
 30
0.0
 11
-1815.574912784649
 21
1148.786577909888
 31
0.0
  0
LINE
  5
E4BD
102
{ACAD_REACTORS
330
E4C1
102
}
330
18
100
AcDbEntity
  8
LAFARGE99--M-
 62
     8
100
AcDbLine
 10
-1815.574912784649
 20
1148.786577909888
 30
0.0
 11
-1841.187229434328
 21
1148.786577909888
 31
0.0
  0
INSERT
  5
E4BE
102
{ACAD_REACTORS
330
E4C1
102
}
330
18
100
AcDbEntity
  8
LAFARGE99--M-
 62
     8
100
AcDbBlockReference
  2
_OBLIQUE
 10
-1785.57491278465
 20
1148.786577909888
 30
0.0
 41
10.0
 42
10.0
 43
10.0
  0
INSERT
  5
E4BF
102
{ACAD_REACTORS
330
E4C1
102
}
330
18
100
AcDbEntity
  8
LAFARGE99--M-
 62
     8
100
AcDbBlockReference
  2
_OBLIQUE
 10
-1815.574912784649
 20
1148.786577909888
 30
0.0
 41
10.0
 42
10.0
 43
10.0
 50
180.0
  0
MTEXT
  5
E4C0
330
18
100
AcDbEntity
  8
LAFARGE99--M-
 62
     1
100
AcDbMText
 10
-1906.396859163405
 20
1149.932030281496
 30
0.0
 40
17.5
 41
0.0
 71
     5
 72
     1
  1
Min 30 mm.
  7
ARIAL
 73
     1
 44
1.0
  0
LINE
  5
E719
330
18
100
AcDbEntity
  8
LAFARGE99--S-2
100
AcDbLine
 10
-1480.574912784652
 20
1066.485122028638
 30
0.0
 11
-1501.574912784651
 21
926.4851220286406
 31
0.0
  0
LINE
  5
E71A
330
18
100
AcDbEntity
  8
LAFARGE99--S-2
100
AcDbLine
 10
-1480.574912784652
 20
926.4851220286406
 30
0.0
 11
-1501.574912784652
 21
1066.485122028638
 31
0.0
  0
MTEXT
  5
E93D
330
18
100
AcDbEntity
  8
LAFARGE99--T-
100
AcDbMText
 10
-2093.965615893522
 20
872.4021094783209
 30
0.0
 40
17.5
 41
308.1134112972013
 71
     1
 72
     5
  1
Udhængsspær
  7
ARIAL
 73
     1
 44
1.0
  0
LINE
  5
E93E
330
18
100
AcDbEntity
  8
LAFARGE99--T-
 62
     8
100
AcDbLine
 10
-1915.213411728426
 20
863.7225862007806
 30
0.0
 11
-1767.852908118168
 21
863.7225862007808
 31
0.0
  0
LINE
  5
E93F
330
18
100
AcDbEntity
  8
LAFARGE99--T-
 62
     8
100
AcDbLine
 10
-1747.591578999555
 20
922.5394413916681
 30
0.0
 11
-1767.852908118168
 21
863.7225862007808
 31
0.0
  0
LWPOLYLINE
  5
E940
330
18
100
AcDbEntity
  8
LAFARGE99--T-
 62
     8
100
AcDbPolyline
 90
        2
 70
     1
 43
3.281249999999998
 10
-1749.167583538701
 20
922.995358141984
 42
1.0
 10
-1746.015574460409
 20
922.0835246413534
 42
1.0
  0
MTEXT
  5
E941
330
18
100
AcDbEntity
  8
LAFARGE99--T-
100
AcDbMText
 10
-2093.965615893522
 20
1000.292129510443
 30
0.0
 40
17.5
 41
329.9003842489569
 71
     1
 72
     5
  1
Vindskede
  7
ARIAL
 73
     1
 44
1.0
  0
LINE
  5
E942
330
18
100
AcDbEntity
  8
LAFARGE99--T-
 62
     8
100
AcDbLine
 10
-1819.023078240066
 20
991.6126062329034
 30
0.0
 11
-1962.231013443419
 21
991.6126062329034
 31
0.0
  0
LINE
  5
E943
330
18
100
AcDbEntity
  8
LAFARGE99--T-
 62
     8
100
AcDbLine
 10
-1780.891153251722
 20
1102.306228406431
 30
0.0
 11
-1819.023078240066
 21
991.6126062329034
 31
0.0
  0
LWPOLYLINE
  5
E944
330
18
100
AcDbEntity
  8
LAFARGE99--T-
 62
     8
100
AcDbPolyline
 90
        2
 70
     1
 43
3.281249999999998
 10
-1782.467157790867
 20
1102.762145156747
 42
1.0
 10
-1779.315148712576
 20
1101.850311656116
 42
1.0
  0
LINE
  5
EA2F
330
18
100
AcDbEntity
  8
LAFARGE99--T-
 62
     8
100
AcDbLine
 10
-1496.895477947856
 20
986.6535649998988
 30
0.0
 11
-1551.299806929548
 21
828.7225862007812
 31
0.0
  0
LWPOLYLINE
  5
EA30
330
18
100
AcDbEntity
  8
LAFARGE99--T-
 62
     8
100
AcDbPolyline
 90
        2
 70
     1
 43
3.281249999999998
 10
-1498.471482487001
 20
987.1094817502147
 42
1.0
 10
-1495.31947340871
 20
986.197648249584
 42
1.0
  0
LINE
  5
EC1D
330
18
100
AcDbEntity
  8
LAFARGE99-I--
  6
Continuous
 48
0.5
100
AcDbLine
 10
-696.5753032861743
 20
1046.485122028639
 30
0.0
 11
-1060.691862145928
 21
1046.485122028638
 31
0.0
  0
LWPOLYLINE
  5
EC48
330
18
100
AcDbEntity
  8
LAFARGE99-I--
  6
Continuous
 48
0.5
100
AcDbPolyline
 90
       68
 70
     0
 43
0.0
 10
-1118.919399285784
 20
1046.485122028638
 42
0.295486173161633
 10
-1120.691862145928
 20
1043.747759690497
 42
0.4142135623730951
 10
-1117.691862145928
 20
1040.747759690497
 10
-1108.691862145928
 20
1040.747759690497
 42
-0.4142135623731184
 10
-1105.691862145928
 20
1037.747759690497
 42
-0.4142135623731268
 10
-1108.691862145928
 20
1034.747759690497
 10
-1117.691862145928
 20
1034.747759690497
 42
0.9999999999999998
 10
-1117.691862145928
 20
1028.747759690497
 10
-1108.691862145928
 20
1028.747759690497
 42
-0.9999999999999998
 10
-1108.691862145928
 20
1022.747759690497
 10
-1117.691862145928
 20
1022.747759690497
 42
1.0
 10
-1117.691862145928
 20
1016.747759690497
 10
-1108.691862145928
 20
1016.747759690497
 42
-0.9999999999999998
 10
-1108.691862145928
 20
1010.747759690497
 10
-1117.691862145928
 20
1010.747759690497
 42
0.9999999999999998
 10
-1117.691862145928
 20
1004.747759690497
 10
-1108.691862145928
 20
1004.747759690497
 42
-0.9999999999999998
 10
-1108.691862145928
 20
998.747759690497
 10
-1117.691862145928
 20
998.747759690497
 42
0.9999999999999998
 10
-1117.691862145928
 20
992.7477596904969
 10
-1108.691862145928
 20
992.7477596904969
 42
-0.9999999999999998
 10
-1108.691862145928
 20
986.747759690497
 10
-1117.691862145928
 20
986.747759690497
 42
0.9999999999999998
 10
-1117.691862145928
 20
980.747759690497
 10
-1108.691862145928
 20
980.747759690497
 42
-0.9999999999999998
 10
-1108.691862145928
 20
974.7477596904969
 10
-1117.691862145928
 20
974.7477596904969
 42
0.4142135623730951
 10
-1120.691862145928
 20
971.7477596904972
 42
0.4142135623731395
 10
-1117.691862145928
 20
968.7477596904972
 10
-1108.691862145928
 20
968.7477596904972
 42
-0.9999999999999998
 10
-1108.691862145928
 20
962.7477596904972
 10
-1117.691862145928
 20
962.7477596904972
 42
0.9999999999999998
 10
-1117.691862145928
 20
956.7477596904971
 10
-1108.691862145928
 20
956.7477596904971
 42
-0.9999999999999998
 10
-1108.691862145928
 20
950.7477596904973
 10
-1117.691862145928
 20
950.7477596904973
 42
0.9999999999999998
 10
-1117.691862145928
 20
944.7477596904972
 10
-1108.691862145928
 20
944.7477596904972
 42
-0.9999999999999998
 10
-1108.691862145928
 20
938.7477596904972
 10
-1117.691862145928
 20
938.7477596904972
 42
0.9999999999999998
 10
-1117.691862145928
 20
932.7477596904971
 10
-1108.691862145928
 20
932.7477596904971
 42
-0.4142135623731184
 10
-1105.691862145928
 20
929.7477596904972
 42
-0.4142135623731268
 10
-1108.691862145928
 20
926.7477596904972
 10
-1117.691862145928
 20
926.7477596904972
 42
0.9999999999999998
 10
-1117.691862145928
 20
920.747759690497
 10
-1108.691862145928
 20
920.7477596904972
 42
-0.9999999999999998
 10
-1108.691862145928
 20
914.747759690497
 10
-1117.691862145928
 20
914.747759690497
 42
1.0
 10
-1117.691862145928
 20
908.7477596904969
 10
-1108.691862145928
 20
908.7477596904969
 42
-0.9999999999999998
 10
-1108.691862145928
 20
902.747759690497
 10
-1117.691862145928
 20
902.747759690497
 42
0.9999999999999998
 10
-1117.691862145928
 20
896.747759690497
 10
-1108.691862145928
 20
896.7477596904972
 42
-0.9999999999999998
 10
-1108.691862145928
 20
890.7477596904969
 10
-1117.691862145928
 20
890.7477596904969
 42
0.9999999999999998
 10
-1117.691862145928
 20
884.7477596904969
 10
-1108.691862145928
 20
884.7477596904969
 42
-0.9999999999999998
 10
-1108.691862145928
 20
878.747759690497
 10
-1117.691862145928
 20
878.747759690497
 42
0.9999999999999998
 10
-1117.691862145928
 20
872.747759690497
 10
-1108.691862145928
 20
872.747759690497
 42
-0.9999999999999998
 10
-1108.691862145928
 20
866.7477596904969
 10
-1117.691862145928
 20
866.7477596904969
 42
0.9999999999999998
 10
-1117.691862145928
 20
860.7477596904969
 10
-1108.691862145928
 20
860.7477596904969
 42
-0.54799514149984
 10
-1105.970512088539
 20
856.4851220286378
  0
MTEXT
  5
EC68
330
18
100
AcDbEntity
  8
LAFARGE99--T-
100
AcDbMText
 10
-1326.548788641606
 20
1291.955994338999
 30
0.0
 40
17.5
 41
544.5017175482367
 71
     1
 72
     5
  1
Ventileret hulrum, min. 20 mm.
  7
ARIAL
 73
     1
 44
1.0
  0
LINE
  5
EC69
330
18
100
AcDbEntity
  8
LAFARGE99--T-
 62
     8
100
AcDbLine
 10
-980.2531710041671
 20
1283.276471061458
 30
0.0
 11
-913.9760367220885
 21
1283.276471061459
 31
0.0
  0
LINE
  5
EC6A
330
18
100
AcDbEntity
  8
LAFARGE99--T-
 62
     8
100
AcDbLine
 10
-836.9092661537951
 20
1059.54108694366
 30
0.0
 11
-913.9760367220885
 21
1283.276471061459
 31
0.0
  0
LWPOLYLINE
  5
EC6B
330
18
100
AcDbEntity
  8
LAFARGE99--T-
 62
     8
100
AcDbPolyline
 90
        2
 70
     1
 43
3.281249999999998
 10
-838.4852706929407
 20
1059.085170193345
 42
-1.0
 10
-835.3332616146497
 20
1059.997003693975
 42
-1.0
  0
MTEXT
  5
EC89
330
18
100
AcDbEntity
  8
LAFARGE99--T-
100
AcDbMText
 10
-2094.8072114489
 20
1388.715604412361
 30
0.0
 40
17.5
 41
308.1134112972013
 71
     1
 72
     5
  1
B&C Danflock tagsten
  7
ARIAL
 73
     1
 44
1.0
  0
MTEXT
  5
EC8A
330
18
100
AcDbEntity
  8
LAFARGE99--T-
100
AcDbMText
 10
-2093.66455966451
 20
1304.053913851046
 30
0.0
 40
17.5
 41
308.1134112972013
 71
     1
 72
     5
  1
Lægte, 38 x 73 mm.
  7
ARIAL
 73
     1
 44
1.0
  0
LINE
  5
EC8D
330
18
100
AcDbEntity
  8
LAFARGE99--T-
 62
     8
100
AcDbLine
 10
-1843.248643457033
 20
1380.036081134823
 30
0.0
 11
-1437.23625311645
 21
1380.036081134817
 31
0.0
  0
LINE
  5
EC8E
330
18
100
AcDbEntity
  8
LAFARGE99--T-
 62
     8
100
AcDbLine
 10
-1867.977483508462
 20
1292.126824883867
 30
0.0
 11
-1636.540934630775
 21
1292.126824883866
 31
0.0
  0
LINE
  5
EC91
330
18
100
AcDbEntity
  8
LAFARGE99--T-
 62
     8
100
AcDbLine
 10
-1357.738609091897
 20
1149.261417279547
 30
0.0
 11
-1437.23625311645
 21
1380.036081134817
 31
0.0
  0
LWPOLYLINE
  5
EC92
330
18
100
AcDbEntity
  8
LAFARGE99--T-
 62
     8
100
AcDbPolyline
 90
        2
 70
     1
 43
3.281249999999998
 10
-1359.314613631043
 20
1148.805500529231
 42
-1.0
 10
-1356.162604552752
 20
1149.717334029862
 42
-1.0
  0
LINE
  5
EC93
330
18
100
AcDbEntity
  8
LAFARGE99--T-
 62
     8
100
AcDbLine
 10
-1565.286653034336
 20
1085.281916642454
 30
0.0
 11
-1636.540934630775
 21
1292.126824883866
 31
0.0
  0
LWPOLYLINE
  5
EC94
330
18
100
AcDbEntity
  8
LAFARGE99--T-
 62
     8
100
AcDbPolyline
 90
        2
 70
     1
 43
3.281249999999998
 10
-1566.862657573481
 20
1084.825999892138
 42
-1.0
 10
-1563.71064849519
 20
1085.737833392769
 42
-1.0
  0
LWPOLYLINE
  5
ECA5
330
18
100
AcDbEntity
  8
LAFARGE99-B--
100
AcDbPolyline
 90
        4
 70
     0
 43
0.0
 10
-1120.691862145928
 20
623.6043652595331
 10
-1120.691862145927
 20
1045.958568741937
 10
-1220.691862145927
 20
1045.958568741937
 10
-1220.691862145928
 20
623.6043652595331
  0
LINE
  5
ECB3
330
18
100
AcDbEntity
  8
LAFARGE99--T-
 62
     8
100
AcDbLine
 10
-1113.684308781836
 20
933.8756622697747
 30
0.0
 11
-1161.964475955069
 21
793.7225862007823
 31
0.0
  0
LWPOLYLINE
  5
ECB4
330
18
100
AcDbEntity
  8
LAFARGE99--T-
 62
     8
100
AcDbPolyline
 90
        2
 70
     1
 43
3.281249999999998
 10
-1115.260313320982
 20
934.3315790200904
 42
1.0
 10
-1112.108304242691
 20
933.4197455194598
 42
1.0
  0
MTEXT
  5
ECB5
330
18
100
AcDbEntity
  8
LAFARGE99--T-
100
AcDbMText
 10
-2095.317016974442
 20
802.4021094783211
 30
0.0
 40
17.5
 41
402.2463072763757
 71
     1
 72
     5
  1
Mineraluld
  7
ARIAL
 73
     1
 44
1.0
  0
LINE
  5
ECB6
330
18
100
AcDbEntity
  8
LAFARGE99--T-
 62
     8
100
AcDbLine
 10
-1969.895136081708
 20
793.7225862007807
 30
0.0
 11
-1161.964475955069
 21
793.7225862007823
 31
0.0
  0
LINE
  5
F5AD
330
18
100
AcDbEntity
  8
LAFARGE99-I--
  6
Continuous
 48
0.5
100
AcDbLine
 10
-1105.691862145928
 20
1046.485122028638
 30
0.0
 11
-1120.691862145928
 21
1046.485122028638
 31
0.0
  0
ATTDEF
  5
F7CE
330
18
100
AcDbEntity
  8
0
100
AcDbText
 10
-1259.700773829981
 20
-978.0970841366142
 30
0.0
 40
20.0
  1
1.2.2005
  7
ARIAL-F
 11
-1259.700773829981
 21
-958.0970841366143
 31
0.0
100
AcDbAttributeDefinition
  3
Dato
  2
30.05.2012
 70
     0
 74
     3
  0
LINE
  5
F829
330
18
100
AcDbEntity
  8
0
100
AcDbLine
 10
-501.5851759283013
 20
-937.4277868262488
 30
0.0
 11
-1371.585175928301
 21
-937.4277868262488
 31
0.0
  0
MTEXT
  5
F82A
330
18
100
AcDbEntity
  8
0
100
AcDbMText
 10
-1356.450445300629
 20
-958.0967368500928
 30
0.0
 40
20.0
 41
77.35910045700551
 71
     1
 72
     5
  1
Dato
  7
ARIAL
 73
     1
 44
1.0
  0
MTEXT
  5
F82B
330
18
100
AcDbEntity
  8
0
100
AcDbMText
 10
-1034.00541441771
 20
-957.4122759572778
 30
0.0
 40
20.0
 41
195.7142857142857
 71
     1
 72
     5
  1
Mål
  7
ARIAL
 73
     1
 44
1.0
  0
MTEXT
  5
F82C
330
18
100
AcDbEntity
  8
0
100
AcDbMText
 10
-826.8112842645424
 20
-958.0967368500928
 30
0.0
 40
20.0
 41
123.4966330743262
 71
     1
 72
     5
  1
Tegn.nr.
  7
ARIAL
 73
     1
 44
1.0
  0
MTEXT
  5
F82D
330
18
100
AcDbEntity
  8
0
100
AcDbMText
 10
-1272.365442966689
 20
-958.0967368500928
 30
0.0
 40
20.0
 41
77.35910045700551
 71
     1
 72
     5
  1
:
  7
ARIAL
 73
     1
 44
1.0
  0
MTEXT
  5
F82E
330
18
100
AcDbEntity
  8
0
100
AcDbMText
 10
-1272.365442966689
 20
-897.2210568500932
 30
0.0
 40
20.0
 41
77.35910045700551
 71
     1
 72
     5
  1
:
  7
ARIAL
 73
     1
 44
1.0
  0
MTEXT
  5
F82F
330
18
100
AcDbEntity
  8
0
100
AcDbMText
 10
-1356.450445300629
 20
-897.2210568500932
 30
0.0
 40
20.0
 41
77.35910045700551
 71
     1
 72
     5
  1
Emne
  7
ARIAL
 73
     1
 44
1.0
  0
MTEXT
  5
F830
330
18
100
AcDbEntity
  8
0
100
AcDbMText
 10
-973.4368486725033
 20
-958.0967368500928
 30
0.0
 40
20.0
 41
77.35910045700551
 71
     1
 72
     5
  1
:
  7
ARIAL
 73
     1
 44
1.0
  0
MTEXT
  5
F831
330
18
100
AcDbEntity
  8
0
100
AcDbMText
 10
-701.8403066883875
 20
-958.0967368500928
 30
0.0
 40
20.0
 41
77.35910045700551
 71
     1
 72
     5
  1
:
  7
ARIAL
 73
     1
 44
1.0
  0
LINE
  5
F85A
330
18
100
AcDbEntity
  8
LAFARGE99-T--
100
AcDbLine
 10
-1480.574912784652
 20
926.4851220286406
 30
0.0
 11
-1480.574912784652
 21
1066.485122028638
 31
0.0
  0
LINE
  5
F85B
330
18
100
AcDbEntity
  8
LAFARGE99-T--
100
AcDbLine
 10
-1480.574912784652
 20
1066.485122028638
 30
0.0
 11
-1501.574912784652
 21
1066.485122028638
 31
0.0
  0
LINE
  5
F85C
330
18
100
AcDbEntity
  8
LAFARGE99-T--
100
AcDbLine
 10
-1501.574912784652
 20
1066.485122028638
 30
0.0
 11
-1501.574912784651
 21
926.4851220286406
 31
0.0
  0
LINE
  5
F85D
330
18
100
AcDbEntity
  8
LAFARGE99-T--
100
AcDbLine
 10
-1501.574912784651
 20
926.4851220286406
 30
0.0
 11
-1480.574912784652
 21
926.4851220286406
 31
0.0
  0
MTEXT
  5
F908
330
18
100
AcDbEntity
  8
LAFARGE09-H--
100
AcDbMText
 10
-1264.208545283495
 20
-841.4363818075862
 30
0.0
 40
25.0
 41
774.5322363858949
 71
     1
 72
     5
  1
Konstruktion med B&C Danflock{\H1.0833x;®\H0.92311x; tagsten}
  7
ARIAL-F
 73
     1
 44
1.0
  0
MTEXT
  5
F90B
330
18
100
AcDbEntity
  8
0
100
AcDbMText
 10
-1255.534647090049
 20
-894.9477103794482
 30
0.0
 40
20.0
 41
571.0900666490906
 71
     1
 72
     5
  1
Muret gavl med udhæng
  7
ARIAL-F
 73
     1
 44
1.0
1001
ACAD
1000
ACAD_MTEXT_COLUMN_INFO_BEGIN
1070
    75
1070
     2
1070
    79
1070
     0
1070
    76
1070
     1
1070
    78
1070
     0
1070
    48
1040
571.0900666490906
1070
    49
1040
12.5
1070
    50
1070
     1
1040
0.0
1000
ACAD_MTEXT_COLUMN_INFO_END
  0
MTEXT
  5
F90C
330
18
100
AcDbEntity
  8
0
100
AcDbMText
 10
-956.9739839736376
 20
-958.7784205799989
 30
0.0
 40
20.0
 41
134.1546614692263
 71
     1
 72
     5
  1
1:10
  7
ARIAL-F
 73
     1
 44
1.0
1001
ACAD
1000
ACAD_MTEXT_COLUMN_INFO_BEGIN
1070
    75
1070
     2
1070
    79
1070
     0
1070
    76
1070
     1
1070
    78
1070
     0
1070
    48
1040
134.1546614692263
1070
    49
1040
12.5
1070
    50
1070
     1
1040
0.0
1000
ACAD_MTEXT_COLUMN_INFO_END
  0
MTEXT
  5
F90D
330
18
100
AcDbEntity
  8
0
100
AcDbMText
 10
-676.4986420855693
 20
-959.4422759689241
 30
0.0
 40
20.0
 41
134.1546614692263
 71
     1
 72
     5
  1
3.A-4-25
  7
ARIAL-F
 73
     1
 44
1.0
1001
ACAD
1000
ACAD_MTEXT_COLUMN_INFO_BEGIN
1070
    75
1070
     2
1070
    79
1070
     0
1070
    76
1070
     1
1070
    78
1070
     0
1070
    48
1040
134.1546614692263
1070
    49
1040
12.5
1070
    50
1070
     1
1040
0.0
1000
ACAD_MTEXT_COLUMN_INFO_END
  0
MTEXT
  5
F9B8
330
18
100
AcDbEntity
  8
LAFARGE09-H--
100
AcDbMText
 10
-2046.132740621797
 20
-846.7837530491699
 30
0.0
 40
6.0
 41
703.808634600672
 71
     1
 72
     5
  1
{\fArial|b1|i0|c0|p34;\H10x;\C7;MONIER A/S\H0.1x;\P\fArial|b0|i0|c0|p34;\H3.6667x;More power to your roof\Pwww.monier.dk}
 73
     1
 44
1.0
  0
HATCH
  5
FCF4
330
18
100
AcDbEntity
  8
A99--S-
100
AcDbHatch
 10
0.0
 20
0.0
 30
0.0
210
0.0
220
0.0
230
1.0
  2
ANSI31
 70
     0
 71
     0
 91
        1
 92
        7
 72
     1
 73
     1
 93
       35
 10
-1630.81103339005
 20
1133.566211789527
 42
0.4929694938512422
 10
-1674.594539447366
 20
1141.04788192262
 42
-0.1422927186868773
 10
-1755.574912784707
 20
1112.499066832434
 42
-0.278174075782297
 10
-1776.283944381986
 20
1124.986810047802
 42
0.0
 10
-1779.612894770401
 20
1131.272335927123
 42
0.1650293613590319
 10
-1781.81299023755
 20
1133.276058649752
 42
0.2008985517912096
 10
-1815.574912784649
 20
1133.49906683243
 42
0.0
 10
-1815.574912784649
 20
1123.499066832432
 42
0.0
 10
-1807.155275701992
 20
1123.499066832432
 42
-0.0144782229352591
 10
-1805.574912784296
 20
1123.499066832432
 42
0.0
 10
-1790.399906717472
 20
1123.499066832432
 42
-0.2550476184999335
 10
-1781.991173608413
 20
1118.911386806397
 42
0.2906855452706658
 10
-1751.419454620059
 20
1104.775111476322
 42
0.1365896830441009
 10
-1669.935693518447
 20
1134.544409418601
 42
0.0
 10
-1669.160360400888
 20
1135.176791896842
 42
-0.4929694938514676
 10
-1637.886427502791
 20
1129.832741801786
 42
0.0
 10
-1633.359338495537
 20
1121.253340061593
 42
0.2781740758027948
 10
-1605.574912784664
 20
1104.499066832432
 42
0.1431331928145644
 10
-1519.935693518476
 20
1134.544409418572
 42
0.0
 10
-1514.547260187409
 20
1135.988235778101
 42
0.0
 10
-1514.547260187405
 20
1135.929201250629
 42
-0.3598170411478602
 10
-1506.899641237006
 20
1133.227265357896
 42
0.0
 10
-1506.253868511651
 20
1132.229624566353
 42
0.5439167994904208
 10
-1502.895957057647
 20
1132.229624566352
 42
0.0
 10
-1501.432824238653
 20
1134.4899878898
 42
-0.5439167994904209
 10
-1494.717001330645
 20
1134.489987889802
 42
0.0
 10
-1493.253868511651
 20
1132.229624566353
 42
0.5472089515381861
 10
-1489.885014836093
 20
1132.246718495166
 42
0.0
 10
-1488.86935150171
 20
1133.85125926367
 42
-0.2570655301564968
 10
-1488.024402527432
 20
1134.316412340836
 42
0.0
 10
-1483.574912784649
 20
1134.316412340836
 42
0.0
 10
-1483.574912784649
 20
1137.819574908121
 42
0.4377916084346235
 10
-1524.594539447388
 20
1141.047881922603
 42
-0.1422927186867317
 10
-1605.574912784646
 20
1112.499066832432
 42
-0.2781740758029475
 10
-1626.283944382797
 20
1124.986810049336
 42
0.0
 97
        0
 75
     0
 76
     1
 52
0.0
 41
2.0
 77
     0
 78
     1
 53
45.0
 43
-20564.73707040276
 44
10014.48202370953
 45
-4.490128060534575
 46
4.490128060534576
 79
     0
 47
0.3276359371301151
 98
        1
 10
-1658.466767442644
 20
1169.367172656378
1001
ACAD
1010
0.0
1020
0.0
1030
0.0
  0
LINE
  5
FD74
330
18
100
AcDbEntity
  8
SX$17
  6
Continuous
 62
    32
100
AcDbLine
 10
-1514.547260187405
 20
1135.988235778101
 30
0.0
 11
-1519.93569351848
 21
1134.54440941857
 31
0.0
  0
ARC
  5
FD75
330
18
100
AcDbEntity
  8
SX$17
  6
Continuous
 62
    32
100
AcDbCircle
 10
-1614.158125484889
 20
1266.036878037227
 30
0.0
 40
161.7656823590624
100
AcDbArc
 50
273.041515984807
 51
305.6239236738782
  0
ARC
  5
FD76
330
18
100
AcDbEntity
  8
SX$17
  6
Continuous
 62
    32
100
AcDbCircle
 10
-1605.574912784649
 20
1135.914335317163
 30
0.0
 40
31.4152684847304
100
AcDbArc
 50
207.8192458917048
 51
270.0
  0
LINE
  5
FD77
330
18
100
AcDbEntity
  8
SX$17
  6
Continuous
 62
    32
100
AcDbLine
 10
-1633.359338495537
 20
1121.253340061593
 30
0.0
 11
-1637.886427502791
 21
1129.832741801786
 31
0.0
  0
ARC
  5
FD78
330
18
100
AcDbEntity
  8
SX$17
  6
Continuous
 62
    32
100
AcDbCircle
 10
-1655.574912784649
 20
1120.499066832432
 30
0.0
 40
20.00000000000149
100
AcDbArc
 50
27.81924589170477
 51
132.7868104464209
  0
LINE
  5
FD79
330
18
100
AcDbEntity
  8
SX$17
  6
Continuous
 62
    32
100
AcDbLine
 10
-1669.160360400888
 20
1135.176791896842
 30
0.0
 11
-1669.935693518476
 21
1134.544409418576
 31
0.0
  0
ARC
  5
FD7A
330
18
100
AcDbEntity
  8
SX$17
  6
Continuous
 62
    32
100
AcDbCircle
 10
-1764.147754236658
 20
1266.016970324227
 30
0.0
 40
161.7434593912739
100
AcDbArc
 50
274.5135220243404
 51
305.62504489105
  0
ARC
  5
FD7B
330
18
100
AcDbEntity
  8
SX$17
  6
Continuous
 62
    32
100
AcDbCircle
 10
-1755.574912784664
 20
1135.914335317176
 30
0.0
 40
31.41526848474367
100
AcDbArc
 50
212.7675456879874
 51
277.6010821979971
  0
ARC
  5
FD7C
330
18
100
AcDbEntity
  8
SX$17
  6
Continuous
 62
    32
100
AcDbCircle
 10
-1790.399906717472
 20
1113.499066832434
 30
0.0
 40
9.999999999997239
100
AcDbArc
 50
32.7675456879874
 51
90.0
  0
LINE
  5
FD7D
330
18
100
AcDbEntity
  8
SX$17
  6
Continuous
 62
    32
100
AcDbLine
 10
-1790.399906717472
 20
1123.499066832432
 30
0.0
 11
-1807.155275701992
 21
1123.499066832432
 31
0.0
  0
ARC
  5
FD7E
330
18
100
AcDbEntity
  8
SX$17
  6
Continuous
 62
    32
100
AcDbCircle
 10
-1806.365094243147
 20
1096.216166666353
 30
0.0
 40
27.29434058939972
100
AcDbArc
 50
88.34103377231768
 51
91.65896622768233
  0
ARC
  5
FD7F
330
18
100
AcDbEntity
  8
SX$17
  6
Continuous
 62
    32
100
AcDbCircle
 10
-1512.357698516388
 20
1129.952622270878
 30
0.0
 40
6.365035476129377
100
AcDbArc
 50
30.96228006647241
 51
110.1206630299726
  0
LINE
  5
FD80
330
18
100
AcDbEntity
  8
SX$17
  6
Continuous
 62
    32
100
AcDbLine
 10
-1506.899641237002
 20
1133.227265357892
 30
0.0
 11
-1506.253868511651
 21
1132.229624566353
 31
0.0
  0
ARC
  5
FD81
330
18
100
AcDbEntity
  8
SX$17
  6
Continuous
 62
    32
100
AcDbCircle
 10
-1504.574912784649
 20
1133.316412340836
 30
0.0
 40
1.999999999999354
100
AcDbArc
 50
212.9149756983667
 51
327.0850243016333
  0
LINE
  5
FD82
330
18
100
AcDbEntity
  8
SX$17
  6
Continuous
 62
    32
100
AcDbLine
 10
-1502.895957057647
 20
1132.229624566353
 30
0.0
 11
-1501.432824238653
 21
1134.4899878898
 31
0.0
  0
ARC
  5
FD83
330
18
100
AcDbEntity
  8
SX$17
  6
Continuous
 62
    32
100
AcDbCircle
 10
-1498.074912784649
 20
1132.316412340836
 30
0.0
 40
3.999999999998708
100
AcDbArc
 50
32.91497569836668
 51
147.0850243016333
  0
LINE
  5
FD84
330
18
100
AcDbEntity
  8
SX$17
  6
Continuous
 62
    32
100
AcDbLine
 10
-1494.717001330645
 20
1134.4899878898
 30
0.0
 11
-1493.253868511651
 21
1132.229624566353
 31
0.0
  0
ARC
  5
FD85
330
18
100
AcDbEntity
  8
SX$17
  6
Continuous
 62
    32
100
AcDbCircle
 10
-1491.574912784649
 20
1133.316412340838
 30
0.0
 40
2.000000000000342
100
AcDbArc
 50
212.9149756983667
 51
327.6664693064694
  0
LINE
  5
FD86
330
18
100
AcDbEntity
  8
SX$17
  6
Continuous
 62
    32
100
AcDbLine
 10
-1489.885014836093
 20
1132.246718495166
 30
0.0
 11
-1488.86935150171
 21
1133.85125926367
 31
0.0
  0
ARC
  5
FD87
330
18
100
AcDbEntity
  8
SX$17
  6
Continuous
 62
    32
100
AcDbCircle
 10
-1488.024402527432
 20
1133.316412340836
 30
0.0
 40
0.9999999999990759
100
AcDbArc
 50
90.0
 51
147.6664693065564
  0
LINE
  5
FD88
330
18
100
AcDbEntity
  8
SX$17
  6
Continuous
 62
    32
100
AcDbLine
 10
-1488.024402527432
 20
1134.316412340836
 30
0.0
 11
-1483.574912784649
 21
1134.316412340836
 31
0.0
  0
LINE
  5
FD89
330
18
100
AcDbEntity
  8
SX$17
  6
Continuous
 62
    32
100
AcDbLine
 10
-1483.574912784649
 20
1134.316412340836
 30
0.0
 11
-1483.574912784649
 21
1137.819574908121
 31
0.0
  0
ARC
  5
FD8A
330
18
100
AcDbEntity
  8
SX$17
  6
Continuous
 62
    32
100
AcDbCircle
 10
-1505.574912784649
 20
1120.499066832432
 30
0.0
 40
28.00000000000005
100
AcDbArc
 50
38.21321070171793
 51
132.7868104465777
  0
ARC
  5
FD8B
330
18
100
AcDbEntity
  8
SX$17
  6
Continuous
 62
    32
100
AcDbCircle
 10
-1614.227755484468
 20
1266.170533506306
 30
0.0
 40
153.9148834794314
100
AcDbArc
 50
273.2227740183553
 51
305.6164040684561
  0
ARC
  5
FD8C
330
18
100
AcDbEntity
  8
SX$17
  6
Continuous
 62
    32
100
AcDbCircle
 10
-1605.574912784649
 20
1135.914335317167
 30
0.0
 40
23.41526848473404
100
AcDbArc
 50
207.8192458917048
 51
270.0
  0
LINE
  5
FD8D
330
18
100
AcDbEntity
  8
SX$17
  6
Continuous
 62
    32
100
AcDbLine
 10
-1626.283944382797
 20
1124.986810049334
 30
0.0
 11
-1630.81103339005
 21
1133.566211789527
 31
0.0
  0
ARC
  5
FD8E
330
18
100
AcDbEntity
  8
SX$17
  6
Continuous
 62
    32
100
AcDbCircle
 10
-1655.574912784649
 20
1120.499066832432
 30
0.0
 40
27.99999999999934
100
AcDbArc
 50
27.81924589170477
 51
132.7868104464209
  0
ARC
  5
FD8F
330
18
100
AcDbEntity
  8
SX$17
  6
Continuous
 62
    32
100
AcDbCircle
 10
-1764.227755484468
 20
1266.170533506306
 30
0.0
 40
153.9148834794291
100
AcDbArc
 50
273.2227740183553
 51
305.6164040684561
  0
ARC
  5
FD90
330
18
100
AcDbEntity
  8
SX$17
  6
Continuous
 62
    32
100
AcDbCircle
 10
-1755.574912784649
 20
1135.914335317167
 30
0.0
 40
23.41526848473222
100
AcDbArc
 50
207.8192458917048
 51
270.0
  0
LINE
  5
FD91
330
18
100
AcDbEntity
  8
SX$17
  6
Continuous
 62
    32
100
AcDbLine
 10
-1776.283944382797
 20
1124.986810049334
 30
0.0
 11
-1779.612894770401
 21
1131.272335927123
 31
0.0
  0
ARC
  5
FD92
330
18
100
AcDbEntity
  8
SX$17
  6
Continuous
 62
    32
100
AcDbCircle
 10
-1783.665677609954
 20
1129.032082474347
 30
0.0
 40
4.630743382789755
100
AcDbArc
 50
28.93246503611458
 51
67.50404168325109
  0
ARC
  5
FD93
330
18
100
AcDbEntity
  8
SX$17
  6
Continuous
 62
    32
100
AcDbCircle
 10
-1798.96026443328
 20
1093.069597077906
 30
0.0
 40
43.71027984893113
100
AcDbArc
 50
67.01790313183697
 51
112.3404027691701
  0
LINE
  5
FD94
330
18
100
AcDbEntity
  8
SX$17
  6
Continuous
 62
    32
100
AcDbLine
 10
-1815.574912784649
 20
1133.499066832432
 30
0.0
 11
-1815.574912784649
 21
1123.499066832432
 31
0.0
  0
LINE
  5
FD95
330
18
100
AcDbEntity
  8
SX$17
  6
Continuous
 62
    32
100
AcDbLine
 10
-1815.574912784649
 20
1123.499066832432
 30
0.0
 11
-1807.155275701992
 21
1123.499066832432
 31
0.0
  0
LINE
  5
FD96
330
18
100
AcDbEntity
  8
SX$17
  6
Continuous
 62
    32
100
AcDbLine
 10
-1514.547260187405
 20
1135.988235778101
 30
0.0
 11
-1514.547260187405
 21
1135.929201250629
 31
0.0
  0
INSERT
  5
FDD5
330
18
100
AcDbEntity
  8
LAFARGE99--S-2
100
AcDbBlockReference
  2
B&C dobbltvinget
 10
-1444.27755100503
 20
1089.030786054797
 30
0.0
  0
INSERT
  5
FDDD
330
18
100
AcDbEntity
  8
LAFARGE99--S-2
100
AcDbBlockReference
  2
B&C dobbltvinget
 10
-1144.27755100503
 20
1089.030786054797
 30
0.0
  0
ARC
  5
FDE6
330
18
100
AcDbEntity
  8
SX$17
 62
    32
100
AcDbCircle
 10
-904.6626037784299
 20
1094.73734200527
 30
0.0
 40
28.0
100
AcDbArc
 50
49.27037599990242
 51
90.0000030000889
  0
LINE
  5
FDE7
330
18
100
AcDbEntity
  8
SX$17
 62
    32
100
AcDbLine
 10
-886.392718778443
 20
1115.95552700529
 30
0.0
 11
-882.3475387784274
 21
1112.472482005275
 31
0.0
  0
ARC
  5
FDE9
330
18
100
AcDbEntity
  8
SX$17
 62
    32
100
AcDbCircle
 10
-860.1627087784436
 20
1138.237402005291
 30
0.0
 40
34.0
100
AcDbArc
 50
229.270380999957
 51
263.0805269999197
  0
ARC
  5
FDEA
330
18
100
AcDbEntity
  8
SX$17
 62
    32
100
AcDbCircle
 10
-757.162678778448
 20
1124.73734200527
 30
0.0
 40
14.0
100
AcDbArc
 50
27.0380470000041
 51
120.0098799999715
  0
ARC
  5
FDEB
330
18
100
AcDbEntity
  8
SX$17
 62
    32
100
AcDbCircle
 10
-710.1627087784436
 20
1138.237402005291
 30
0.0
 40
34.0
100
AcDbArc
 50
207.0379649999622
 51
263.0805269999197
  0
LINE
  5
FDEC
330
18
100
AcDbEntity
  8
SX$17
 62
    32
100
AcDbLine
 10
-744.692813778427
 20
1131.101477005281
 30
0.0
 11
-740.4466737784241
 21
1122.781622005287
 31
0.0
  0
LINE
  5
FDED
330
18
100
AcDbEntity
  8
SX$17
 62
    32
100
AcDbLine
 10
-789.8930087784393
 20
1122.000452005285
 30
0.0
 11
-764.1647837784403
 21
1136.860527005274
 31
0.0
  0
ARC
  5
FDEE
330
18
100
AcDbEntity
  8
SX$17
 62
    32
100
AcDbCircle
 10
-706.1626937784458
 20
1236.73754200528
 30
0.0
 40
132.5
100
AcDbArc
 50
266.4968789999255
 51
274.149414954947
  0
ARC
  5
FDEF
330
18
100
AcDbEntity
  8
SX$17
 62
    32
100
AcDbCircle
 10
-856.1626937784458
 20
1236.73754200528
 30
0.0
 40
132.5
100
AcDbArc
 50
266.4968789999255
 51
300.0098850000148
  0
LINE
  5
FDF0
330
18
100
AcDbEntity
  8
SX$17
 62
    32
100
AcDbLine
 10
-915.1626337784255
 20
1122.737372005281
 30
0.0
 11
-904.6626037784299
 21
1122.737372005281
 31
0.0
  0
ARC
  5
FDF1
330
18
100
AcDbEntity
  8
SX$17
 62
    32
100
AcDbCircle
 10
-856.1626187784568
 20
1142.23734200527
 30
0.0
 40
27.0
100
AcDbArc
 50
203.5781730000178
 51
270.0000010000991
  0
LINE
  5
FDF2
330
18
100
AcDbEntity
  8
SX$17
 62
    32
100
AcDbLine
 10
-915.1627087784437
 20
1122.737372005281
 30
0.0
 11
-915.1627087784437
 21
1134.487402005291
 31
0.0
  0
LINE
  5
FDF3
330
18
100
AcDbEntity
  8
SX$17
 62
    32
100
AcDbLine
 10
-915.1627087784437
 20
1134.487402005291
 30
0.0
 11
-911.6328937784565
 21
1135.638832005289
 31
0.0
  0
ARC
  5
FDF4
330
18
100
AcDbEntity
  8
SX$17
 62
    32
100
AcDbCircle
 10
-911.0126987784315
 20
1133.737357005283
 30
0.0
 40
2.0
100
AcDbArc
 50
31.27322299983299
 51
108.0665090000473
  0
LINE
  5
FDF5
330
18
100
AcDbEntity
  8
SX$17
 62
    32
100
AcDbLine
 10
-909.3032587784255
 20
1134.775567005282
 30
0.0
 11
-907.7267937784345
 21
1132.179972005276
 31
0.0
  0
ARC
  5
FDF6
330
18
100
AcDbEntity
  8
SX$17
 62
    32
100
AcDbCircle
 10
-905.1627087784437
 20
1133.737357005283
 30
0.0
 40
3.0
100
AcDbArc
 50
211.2732280000148
 51
270.0000010000991
  0
LINE
  5
FDF7
330
18
100
AcDbEntity
  8
SX$17
 62
    32
100
AcDbLine
 10
-900.2171837784553
 20
1132.783227005285
 30
0.0
 11
-899.8077887784312
 21
1133.514502005283
 31
0.0
  0
ARC
  5
FDF8
330
18
100
AcDbEntity
  8
SX$17
 62
    32
100
AcDbCircle
 10
-903.7074037784332
 20
1134.73734200527
 30
0.0
 40
4.0
100
AcDbArc
 50
270.0000010000991
 51
330.7549979999373
  0
ARC
  5
FDF9
330
18
100
AcDbEntity
  8
SX$17
 62
    32
100
AcDbCircle
 10
-898.0627187784266
 20
1132.537332005284
 30
0.0
 40
2.0
100
AcDbArc
 50
26.7170839999484
 51
150.7561270000429
  0
LINE
  5
FDFA
330
18
100
AcDbEntity
  8
SX$17
 62
    32
100
AcDbLine
 10
-895.2708187784446
 20
1131.439002005291
 30
0.0
 11
-896.2762187784392
 21
1133.436532005284
 31
0.0
  0
ARC
  5
FDFB
330
18
100
AcDbEntity
  8
SX$17
 62
    32
100
AcDbCircle
 10
-884.9626637784385
 20
1131.237357005283
 30
0.0
 40
2.0
100
AcDbArc
 50
90.0000030000889
 51
143.13045299995
  0
ARC
  5
FDFC
330
18
100
AcDbEntity
  8
SX$17
 62
    32
100
AcDbCircle
 10
-883.6581137784378
 20
1130.23737200528
 30
0.0
 40
3.0
100
AcDbArc
 50
23.57817800001259
 51
90.0000030000889
  0
LINE
  5
FDFD
330
18
100
AcDbEntity
  8
SX$17
 62
    32
100
AcDbLine
 10
-891.6978937784296
 20
1129.237387005278
 30
0.0
 11
-890.9626487784407
 21
1129.237387005278
 31
0.0
  0
ARC
  5
FDFE
330
18
100
AcDbEntity
  8
SX$17
 62
    32
100
AcDbCircle
 10
-891.6978937784296
 20
1133.237402005291
 30
0.0
 40
4.0
100
AcDbArc
 50
206.7170819999117
 51
270.0000010000991
  0
LINE
  5
FDFF
330
18
100
AcDbEntity
  8
SX$17
 62
    32
100
AcDbLine
 10
-884.9626637784385
 20
1133.237402005291
 30
0.0
 11
-883.6581137784378
 21
1133.237402005291
 31
0.0
  0
LINE
  5
FE00
330
18
100
AcDbEntity
  8
SX$17
 62
    32
100
AcDbLine
 10
-905.1627087784437
 20
1130.737402005291
 30
0.0
 11
-903.7074037784332
 21
1130.737402005291
 31
0.0
  0
ARC
  5
FE01
330
18
100
AcDbEntity
  8
SX$17
 62
    32
100
AcDbCircle
 10
-890.9626487784407
 20
1133.237402005291
 30
0.0
 40
4.0
100
AcDbArc
 50
270.0000010000991
 51
323.1304580001108
  0
LINE
  5
FE02
330
18
100
AcDbEntity
  8
SX$17
 62
    32
100
AcDbLine
 10
-886.5626287784397
 20
1132.437387005275
 30
0.0
 11
-887.7626537784673
 21
1130.837347005285
 31
0.0
  0
LINE
  5
FE15
330
18
100
AcDbEntity
  8
SX$17
 62
    32
100
AcDbLine
 10
-795.3945637784345
 20
1131.525747005284
 30
0.0
 11
-769.6663387784355
 21
1146.385902005286
 31
0.0
  0
ARC
  5
FE16
330
18
100
AcDbEntity
  8
SX$17
 62
    32
100
AcDbCircle
 10
-856.1626187784568
 20
1236.73754200528
 30
0.0
 40
121.499995
100
AcDbArc
 50
270.0000010000991
 51
300.0098850000148
  0
ARC
  5
FE17
330
18
100
AcDbEntity
  8
SX$17
 62
    32
100
AcDbCircle
 10
-706.1626937784458
 20
1236.73754200528
 30
0.0
 40
121.499995
100
AcDbArc
 50
270.0000010000991
 51
274.5258328971585
  0
LINE
  5
FE18
330
18
100
AcDbEntity
  8
SX$17
 62
    32
100
AcDbLine
 10
-731.792958778431
 20
1133.617577005289
 30
0.0
 11
-731.2423437784454
 21
1132.236732005282
 31
0.0
  0
ARC
  5
FE19
330
18
100
AcDbEntity
  8
SX$17
 62
    32
100
AcDbCircle
 10
-706.1626937784458
 20
1142.23734200527
 30
0.0
 40
27.0
100
AcDbArc
 50
201.7398140000561
 51
270.0000010000991
  0
ARC
  5
FE1A
330
18
100
AcDbEntity
  8
SX$17
 62
    32
100
AcDbCircle
 10
-755.1626337784255
 20
1124.73734200527
 30
0.0
 40
25.0
100
AcDbArc
 50
20.80614800003673
 51
92.29243899999643
  0
ARC
  5
FE1B
330
18
100
AcDbEntity
  8
SX$17
 62
    32
100
AcDbCircle
 10
-757.1626037784299
 20
1124.73734200527
 30
0.0
 40
25.0
100
AcDbArc
 50
87.70755900008053
 51
120.0098799999715
  0
LINE
  5
FE1F
330
18
100
AcDbEntity
  8
A99--S-
100
AcDbLine
 10
-915.1627087784454
 20
1125.794055326541
 30
0.0
 11
-908.1235487636321
 21
1132.833215341354
 31
0.0
1001
ACAD
1010
0.0
1020
0.0
1030
0.0
  0
LINE
  5
FE20
330
18
100
AcDbEntity
  8
A99--S-
100
AcDbLine
 10
-909.2391359786343
 20
1122.737372005285
 30
0.0
 11
-897.5154954798309
 21
1134.461012504088
 31
0.0
1001
ACAD
1010
0.0
1020
0.0
1030
0.0
  0
LINE
  5
FE21
330
18
100
AcDbEntity
  8
A99--S-
100
AcDbLine
 10
-900.5609585534102
 20
1122.435293309438
 30
0.0
 11
-893.3854429815555
 21
1129.610808881292
 31
0.0
1001
ACAD
1010
0.0
1020
0.0
1030
0.0
  0
LINE
  5
FE22
330
18
100
AcDbEntity
  8
A99--S-
100
AcDbLine
 10
-893.569738265276
 20
1120.446257476503
 30
0.0
 11
-881.5979043419456
 21
1132.418091399833
 31
0.0
1001
ACAD
1010
0.0
1020
0.0
1030
0.0
  0
LINE
  5
FE23
330
18
100
AcDbEntity
  8
A99--S-
100
AcDbLine
 10
-887.8830657383323
 20
1117.152673882378
 30
0.0
 11
-878.2818807480863
 21
1126.753858872624
 31
0.0
1001
ACAD
1010
0.0
1020
0.0
1030
0.0
  0
LINE
  5
FE24
330
18
100
AcDbEntity
  8
A99--S-
100
AcDbLine
 10
-883.0113963370504
 20
1113.04408716259
 30
0.0
 11
-874.0462416117225
 21
1122.009241887918
 31
0.0
1001
ACAD
1010
0.0
1020
0.0
1030
0.0
  0
LINE
  5
FE25
330
18
100
AcDbEntity
  8
A99--S-
100
AcDbLine
 10
-877.8655565875469
 20
1109.209670791025
 30
0.0
 11
-868.7331235810907
 21
1118.342103797481
 31
0.0
1001
ACAD
1010
0.0
1020
0.0
1030
0.0
  0
LINE
  5
FE26
330
18
100
AcDbEntity
  8
A99--S-
100
AcDbLine
 10
-871.8029205542935
 20
1106.292050703209
 30
0.0
 11
-862.1788237183199
 21
1115.916147539183
 31
0.0
1001
ACAD
1010
0.0
1020
0.0
1030
0.0
  0
LINE
  5
FE27
330
18
100
AcDbEntity
  8
A99--S-
100
AcDbLine
 10
-864.5880837584417
 20
1104.526631377992
 30
0.0
 11
-853.8552570259152
 21
1115.259458110518
 31
0.0
1001
ACAD
1010
0.0
1020
0.0
1030
0.0
  0
LINE
  5
FE28
330
18
100
AcDbEntity
  8
A99--S-
100
AcDbLine
 10
-855.8966499179833
 20
1104.237809097381
 30
0.0
 11
-844.3182084750924
 21
1115.816250540272
 31
0.0
1001
ACAD
1010
0.0
1020
0.0
1030
0.0
  0
LINE
  5
FE29
330
18
100
AcDbEntity
  8
A99--S-
100
AcDbLine
 10
-846.5688788626922
 20
1104.585324031603
 30
0.0
 11
-833.8503775546669
 21
1117.303825339629
 31
0.0
1001
ACAD
1010
0.0
1020
0.0
1030
0.0
  0
LINE
  5
FE2A
330
18
100
AcDbEntity
  8
A99--S-
100
AcDbLine
 10
-836.4639135494625
 20
1105.710033223764
 30
0.0
 11
-822.0490753468247
 21
1120.124871426402
 31
0.0
1001
ACAD
1010
0.0
1020
0.0
1030
0.0
  0
LINE
  5
FE2B
330
18
100
AcDbEntity
  8
A99--S-
100
AcDbLine
 10
-825.3153377996868
 20
1107.878352852471
 30
0.0
 11
-808.0045764400747
 21
1125.189114212083
 31
0.0
1001
ACAD
1010
0.0
1020
0.0
1030
0.0
  0
LINE
  5
FE2C
330
18
100
AcDbEntity
  8
A99--S-
100
AcDbLine
 10
-812.615319561427
 20
1111.598114969662
 30
0.0
 11
-788.9865151299663
 21
1135.226919401122
 31
0.0
1001
ACAD
1010
0.0
1020
0.0
1030
0.0
  0
LINE
  5
FE2D
330
18
100
AcDbEntity
  8
A99--S-
100
AcDbLine
 10
-797.1071633628317
 20
1118.126015047188
 30
0.0
 11
-767.9365211624135
 21
1147.296657247606
 31
0.0
1001
ACAD
1010
0.0
1020
0.0
1030
0.0
  0
LINE
  5
FE2E
330
18
100
AcDbEntity
  8
A99--S-
100
AcDbLine
 10
-776.5401342308259
 20
1129.712788058123
 30
0.0
 11
-756.5237444417889
 21
1149.72917784716
 31
0.0
1001
ACAD
1010
0.0
1020
0.0
1030
0.0
  0
LINE
  5
FE2F
330
18
100
AcDbEntity
  8
A99--S-
100
AcDbLine
 10
-758.6103763436931
 20
1138.662289824188
 30
0.0
 11
-748.4526350147652
 21
1148.820031153116
 31
0.0
1001
ACAD
1010
0.0
1020
0.0
1030
0.0
  0
LINE
  5
FE30
330
18
100
AcDbEntity
  8
A99--S-
100
AcDbLine
 10
-750.9895436646347
 20
1137.302866382176
 30
0.0
 11
-742.1864380980086
 21
1146.105971948802
 31
0.0
1001
ACAD
1010
0.0
1020
0.0
1030
0.0
  0
LINE
  5
FE31
330
18
100
AcDbEntity
  8
A99--S-
100
AcDbLine
 10
-746.0541777949856
 20
1133.257976130756
 30
0.0
 11
-737.1934967867973
 21
1142.118657138944
 31
0.0
1001
ACAD
1010
0.0
1020
0.0
1030
0.0
  0
LINE
  5
FE32
330
18
100
AcDbEntity
  8
A99--S-
100
AcDbLine
 10
-742.8470319422877
 20
1127.484865862385
 30
0.0
 11
-733.3605757812019
 21
1136.97132202347
 31
0.0
1001
ACAD
1010
0.0
1020
0.0
1030
0.0
  0
LINE
  5
FE33
330
18
100
AcDbEntity
  8
A99--S-
100
AcDbLine
 10
-739.7915401557557
 20
1121.560101527848
 30
0.0
 11
-730.5985628795361
 21
1130.753078804067
 31
0.0
1001
ACAD
1010
0.0
1020
0.0
1030
0.0
  0
LINE
  5
FE34
330
18
100
AcDbEntity
  8
A99--S-
100
AcDbLine
 10
-736.1078379019736
 20
1116.263547660561
 30
0.0
 11
-727.1367097021212
 21
1125.234675860413
 31
0.0
1001
ACAD
1010
0.0
1020
0.0
1030
0.0
  0
LINE
  5
FE35
330
18
100
AcDbEntity
  8
A99--S-
100
AcDbLine
 10
-731.5690425698457
 20
1111.82208687162
 30
0.0
 11
-722.5851451168709
 21
1120.805984324594
 31
0.0
1001
ACAD
1010
0.0
1020
0.0
1030
0.0
  0
LINE
  5
FE36
330
18
100
AcDbEntity
  8
A99--S-
100
AcDbLine
 10
-726.1697271363073
 20
1108.241146184089
 30
0.0
 11
-716.9325667571938
 21
1117.478306563203
 31
0.0
1001
ACAD
1010
0.0
1020
0.0
1030
0.0
  0
LINE
  5
FE37
330
18
100
AcDbEntity
  8
A99--S-
100
AcDbLine
 10
-719.7990554976795
 20
1105.631561701648
 30
0.0
 11
-709.9292615630656
 21
1115.501355636262
 31
0.0
1001
ACAD
1010
0.0
1020
0.0
1030
0.0
  0
LINE
  5
FE38
330
18
100
AcDbEntity
  8
A99--S-
100
AcDbLine
 10
-712.0805962339127
 20
1104.369764844346
 30
0.0
 11
-701.107608490528
 21
1115.34275258773
 31
0.0
1001
ACAD
1010
0.0
1020
0.0
1030
0.0
  0
LINE
  5
FE39
330
18
100
AcDbEntity
  8
A99--S-
100
AcDbLine
 10
-703.1994230590434
 20
1104.270681898146
 30
0.0
 11
-696.5753032861743
 21
1110.894801671014
 31
0.0
1001
ACAD
1010
0.0
1020
0.0
1030
0.0
  0
LINE
  5
FE87
330
18
100
AcDbEntity
  8
LAFARGE99-I--
  6
Continuous
 48
0.5
100
AcDbLine
 10
-1353.064124840464
 20
1055.958568741937
 30
0.0
 11
-1353.064124840464
 21
1125.328129895732
 31
0.0
  0
ARC
  5
FE88
330
18
100
AcDbEntity
  8
LAFARGE99-I--
  6
Continuous
 48
0.5
100
AcDbCircle
 10
-1363.064124840464
 20
1125.328129895732
 30
0.0
 40
10.0
100
AcDbArc
 50
0.0
 51
180.0
  0
LINE
  5
FE89
330
18
100
AcDbEntity
  8
LAFARGE99-I--
  6
Continuous
 48
0.5
100
AcDbLine
 10
-1373.064124840464
 20
1125.328129895732
 30
0.0
 11
-1373.064124840464
 21
1055.958568741937
 31
0.0
  0
ARC
  5
FE8A
330
18
100
AcDbEntity
  8
LAFARGE99-I--
  6
Continuous
 48
0.5
100
AcDbCircle
 10
-1383.064124840464
 20
1055.958568741937
 30
0.0
 40
10.0
100
AcDbArc
 50
180.0
 51
0.0
  0
LINE
  5
FE8B
330
18
100
AcDbEntity
  8
LAFARGE99-I--
  6
Continuous
 48
0.5
100
AcDbLine
 10
-1393.064124840464
 20
1055.958568741937
 30
0.0
 11
-1393.064124840464
 21
1105.476354711358
 31
0.0
  0
ARC
  5
FE8C
330
18
100
AcDbEntity
  8
LAFARGE99-I--
  6
Continuous
 48
0.5
100
AcDbCircle
 10
-1403.064124840464
 20
1105.476354711358
 30
0.0
 40
10.0
100
AcDbArc
 50
0.0
 51
180.0
  0
LINE
  5
FE8D
330
18
100
AcDbEntity
  8
LAFARGE99-I--
  6
Continuous
 48
0.5
100
AcDbLine
 10
-1413.064124840464
 20
1105.476354711357
 30
0.0
 11
-1413.064124840464
 21
1055.958568741937
 31
0.0
  0
ARC
  5
FE8E
330
18
100
AcDbEntity
  8
LAFARGE99-I--
  6
Continuous
 48
0.5
100
AcDbCircle
 10
-1423.064124840464
 20
1055.958568741937
 30
0.0
 40
10.0
100
AcDbArc
 50
180.0
 51
0.0
  0
LINE
  5
FE8F
330
18
100
AcDbEntity
  8
LAFARGE99-I--
  6
Continuous
 48
0.5
100
AcDbLine
 10
-1433.064124840464
 20
1055.958568741937
 30
0.0
 11
-1433.064124840464
 21
1095.539652928843
 31
0.0
  0
ARC
  5
FE90
330
18
100
AcDbEntity
  8
LAFARGE99-I--
  6
Continuous
 48
0.5
100
AcDbCircle
 10
-1443.064124840464
 20
1095.539652928844
 30
0.0
 40
10.0
100
AcDbArc
 50
0.0
 51
180.0
  0
LINE
  5
FE91
330
18
100
AcDbEntity
  8
LAFARGE99-I--
  6
Continuous
 48
0.5
100
AcDbLine
 10
-1453.064124840464
 20
1095.539652928844
 30
0.0
 11
-1453.064124840464
 21
1055.958568741937
 31
0.0
  0
MTEXT
  5
FE93
330
18
100
AcDbEntity
  8
LAFARGE99--T-
100
AcDbMText
 10
-2093.66455966451
 20
1345.234969864727
 30
0.0
 40
17.5
 41
308.1134112972013
 71
     1
 72
     5
  1
Tætning med mineraluld
  7
ARIAL
 73
     1
 44
1.0
  0
LINE
  5
FE94
330
18
100
AcDbEntity
  8
LAFARGE99--T-
 62
     8
100
AcDbLine
 10
-1816.193170208737
 20
1333.307880897547
 30
0.0
 11
-1498.504525817772
 21
1333.307880897546
 31
0.0
  0
LINE
  5
FE95
330
18
100
AcDbEntity
  8
LAFARGE99--T-
 62
     8
100
AcDbLine
 10
-1413.064124840464
 20
1085.281916642454
 30
0.0
 11
-1498.504525817773
 21
1333.307880897546
 31
0.0
  0
LWPOLYLINE
  5
FE96
330
18
100
AcDbEntity
  8
LAFARGE99--T-
 62
     8
100
AcDbPolyline
 90
        2
 70
     1
 43
3.281249999999998
 10
-1414.640129379609
 20
1084.825999892138
 42
-1.0
 10
-1411.488120301318
 20
1085.737833392769
 42
-1.0
  0
ENDSEC
  0
SECTION
  2
OBJECTS
  0
DICTIONARY
  5
C
330
0
100
AcDbDictionary
281
     1
  3
ACAD_2007HEADERVARS_RT
350
FEDF
  3
ACAD_CIP_PREVIOUS_PRODUCT_INFO
350
F857
  3
ACAD_COLOR
350
8E
  3
ACAD_GROUP
350
D
  3
ACAD_IMAGE_DICT
350
F904
  3
ACAD_IMAGE_VARS
350
F907
  3
ACAD_LAYOUT
350
8F
  3
ACAD_MATERIAL
350
8D
  3
ACAD_MLEADERSTYLE
350
F850
  3
ACAD_MLINESTYLE
350
1B
  3
ACAD_PLOTSETTINGS
350
90
  3
ACAD_PLOTSTYLENAME
350
8B
  3
ACAD_SCALELIST
350
F83E
  3
ACAD_TABLESTYLE
350
F7C5
  3
ACAD_VISUALSTYLE
350
F7B4
  3
ACDB_RECOMPOSE_DATA
350
FEDE
  3
AcDbVariableDictionary
350
49F
  0
DICTIONARY
  5
BE
330
2
100
AcDbDictionary
280
     1
281
     1
  3
ACAD_LAYERFILTERS
360
A6A
  3
ACAD_LAYERSTATES
360
BF
  0
DICTIONARY
  5
F94F
330
E
100
AcDbDictionary
280
     1
281
     1
  3
ADSK_XREC_LAYER_RECONCILED
360
F950
  0
DICTIONARY
  5
F951
330
20
100
AcDbDictionary
280
     1
281
     1
  3
ADSK_XREC_LAYER_RECONCILED
360
F952
  0
DICTIONARY
  5
F953
330
29
100
AcDbDictionary
280
     1
281
     1
  3
ADSK_XREC_LAYER_RECONCILED
360
F954
  0
DICTIONARY
  5
F955
330
2F
100
AcDbDictionary
280
     1
281
     1
  3
ADSK_XREC_LAYER_RECONCILED
360
F956
  0
DICTIONARY
  5
F957
330
32
100
AcDbDictionary
280
     1
281
     1
  3
ADSK_XREC_LAYER_RECONCILED
360
F958
  0
DICTIONARY
  5
F959
330
35
100
AcDbDictionary
280
     1
281
     1
  3
ADSK_XREC_LAYER_RECONCILED
360
F95A
  0
DICTIONARY
  5
F95B
330
38
100
AcDbDictionary
280
     1
281
     1
  3
ADSK_XREC_LAYER_RECONCILED
360
F95C
  0
DICTIONARY
  5
F95D
330
3E
100
AcDbDictionary
280
     1
281
     1
  3
ADSK_XREC_LAYER_RECONCILED
360
F95E
  0
DICTIONARY
  5
F95F
330
69
100
AcDbDictionary
280
     1
281
     1
  3
ADSK_XREC_LAYER_RECONCILED
360
F960
  0
DICTIONARY
  5
F961
330
6C
100
AcDbDictionary
280
     1
281
     1
  3
ADSK_XREC_LAYER_RECONCILED
360
F962
  0
DICTIONARY
  5
F963
330
A1
100
AcDbDictionary
280
     1
281
     1
  3
ADSK_XREC_LAYER_RECONCILED
360
F964
  0
DICTIONARY
  5
F965
330
A94
100
AcDbDictionary
280
     1
281
     1
  3
ADSK_XREC_LAYER_RECONCILED
360
F966
  0
DICTIONARY
  5
F967
330
AA5
100
AcDbDictionary
280
     1
281
     1
  3
ADSK_XREC_LAYER_RECONCILED
360
F968
  0
DICTIONARY
  5
F969
330
AA6
100
AcDbDictionary
280
     1
281
     1
  3
ADSK_XREC_LAYER_RECONCILED
360
F96A
  0
DICTIONARY
  5
F96B
330
AA8
100
AcDbDictionary
280
     1
281
     1
  3
ADSK_XREC_LAYER_RECONCILED
360
F96C
  0
DICTIONARY
  5
F96D
330
AA9
100
AcDbDictionary
280
     1
281
     1
  3
ADSK_XREC_LAYER_RECONCILED
360
F96E
  0
DICTIONARY
  5
FCE6
330
FCE5
100
AcDbDictionary
280
     1
281
     1
  0
DICTIONARY
  5
6578
330
18
100
AcDbDictionary
280
     1
281
     1
  3
ACAD_SORTENTS
360
6579
  0
DICTIONARY
  5
D693
330
D68F
100
AcDbDictionary
280
     1
281
     1
  3
ACAD_SORTENTS
360
F6CF
  0
DICTIONARY
  5
D972
330
D94C
100
AcDbDictionary
280
     1
281
     1
  3
ACAD_SORTENTS
360
F6D1
  0
DICTIONARY
  5
DCC0
330
DC90
100
AcDbDictionary
280
     1
281
     1
  3
ACAD_SORTENTS
360
F6D0
  0
DICTIONARY
  5
FAD1
330
DCFB
100
AcDbDictionary
280
     1
281
     1
  3
ACAD_SORTENTS
360
FAD2
  0
DICTIONARY
  5
FBC3
330
DE4E
100
AcDbDictionary
280
     1
281
     1
  3
ACAD_SORTENTS
360
FBC4
  0
DICTIONARY
  5
FCBE
330
FCBD
100
AcDbDictionary
280
     1
281
     1
  3
ACAD_SORTENTS
360
FCBF
  0
DICTIONARY
  5
FEDF
102
{ACAD_REACTORS
330
C
102
}
330
C
100
AcDbDictionary
281
     1
  3
INTERFEREVPVS
350
FEE0
  0
XRECORD
  5
F857
102
{ACAD_REACTORS
330
C
102
}
330
C
100
AcDbXrecord
280
     1
300
ACD
300
2012
300
REVITS_F_S
  0
DICTIONARY
  5
8E
102
{ACAD_REACTORS
330
C
102
}
330
C
100
AcDbDictionary
281
     1
  0
DICTIONARY
  5
D
102
{ACAD_REACTORS
330
C
102
}
330
C
100
AcDbDictionary
281
     1
  3
*A1
350
E4C1
  0
DICTIONARY
  5
F904
102
{ACAD_REACTORS
330
C
102
}
330
C
100
AcDbDictionary
281
     1
  3
Monier_Logo_CMYK
350
F905
  0
RASTERVARIABLES
  5
F907
102
{ACAD_REACTORS
330
C
102
}
330
C
100
AcDbRasterVariables
 90
        0
 70
     1
 71
     1
 72
     0
  0
DICTIONARY
  5
8F
102
{ACAD_REACTORS
330
C
102
}
330
C
100
AcDbDictionary
281
     1
  3
Layout1
350
F790
  3
Model
350
91
  0
DICTIONARY
  5
8D
102
{ACAD_REACTORS
330
C
102
}
330
C
100
AcDbDictionary
281
     1
  3
ByBlock
350
F7B2
  3
ByLayer
350
F7B1
  3
Global
350
F7B3
  0
DICTIONARY
  5
F850
102
{ACAD_REACTORS
330
C
102
}
330
C
100
AcDbDictionary
281
     1
  3
Standard
350
F851
  0
DICTIONARY
  5
1B
102
{ACAD_REACTORS
330
C
102
}
330
C
100
AcDbDictionary
281
     1
  3
STANDARD
350
1C
  0
DICTIONARY
  5
90
102
{ACAD_REACTORS
330
C
102
}
330
C
100
AcDbDictionary
281
     1
  0
ACDBDICTIONARYWDFLT
  5
8B
102
{ACAD_REACTORS
330
C
102
}
330
C
100
AcDbDictionary
281
     1
  3
Normal
350
8C
100
AcDbDictionaryWithDefault
340
8C
  0
DICTIONARY
  5
F83E
102
{ACAD_REACTORS
330
C
102
}
330
C
100
AcDbDictionary
281
     1
  3
A0
350
F83F
  3
A1
350
F840
  3
A2
350
F841
  3
A3
350
F842
  3
A4
350
F843
  3
A5
350
F844
  3
A6
350
F845
  3
A7
350
F846
  3
A8
350
F847
  3
A9
350
F848
  3
B0
350
F849
  3
B1
350
F84A
  3
B2
350
F84B
  3
B3
350
F84C
  3
B4
350
F84D
  3
B5
350
F84E
  3
B6
350
F84F
  0
DICTIONARY
  5
F7C5
102
{ACAD_REACTORS
330
C
102
}
330
C
100
AcDbDictionary
281
     1
  3
Standard
350
F7C6
  0
DICTIONARY
  5
F7B4
102
{ACAD_REACTORS
330
C
102
}
330
C
100
AcDbDictionary
281
     1
  3
2dWireframe
350
F7BA
  3
3D Hidden
350
F7BC
  3
3dWireframe
350
F7BB
  3
Basic
350
F7B9
  3
Brighten
350
F7C0
  3
ColorChange
350
F7C4
  3
Conceptual
350
F7BD
  3
Dim
350
F7BF
  3
EdgeColorOff
350
F83D
  3
Facepattern
350
F7C3
  3
Flat
350
F7B5
  3
FlatWithEdges
350
F7B6
  3
Gouraud
350
F7B7
  3
GouraudWithEdges
350
F7B8
  3
Hidden
350
F835
  3
JitterOff
350
F83B
  3
Linepattern
350
F7C2
  3
OverhangOff
350
F83C
  3
Realistic
350
F7BE
  3
Shaded
350
F83A
  3
Shaded with edges
350
F839
  3
Shades of Gray
350
F836
  3
Sketchy
350
F837
  3
Thicken
350
F7C1
  3
Wireframe
350
F834
  3
X-Ray
350
F838
  0
XRECORD
  5
FEDE
102
{ACAD_REACTORS
330
C
102
}
330
C
100
AcDbXrecord
280
     1
 90
        1
330
F7C6
330
F90B
330
F90C
330
F90D
  0
DICTIONARY
  5
49F
102
{ACAD_REACTORS
330
C
102
}
330
C
100
AcDbDictionary
281
     1
  3
CANNOSCALE
350
F8EC
  3
CMLEADERSTYLE
350
F8EA
  3
CTABLESTYLE
350
F832
  3
DIMASSOC
350
4A0
  3
LAYEREVAL
350
F8EE
  3
LAYERNOTIFY
350
F8EF
  3
LIGHTINGUNITS
350
F8ED
  3
MSLTSCALE
350
F8EB
  3
PROJECTNAME
350
4A1
  0
DICTIONARY
  5
A6A
102
{ACAD_REACTORS
330
BE
102
}
330
BE
100
AcDbDictionary
281
     1
  0
DICTIONARY
  5
BF
102
{ACAD_REACTORS
330
BE
102
}
330
BE
100
AcDbDictionary
281
     1
  3
Alle lag
350
1D0
  0
XRECORD
  5
F950
102
{ACAD_REACTORS
330
F94F
102
}
330
F94F
100
AcDbXrecord
280
     1
290
     1
  0
XRECORD
  5
F952
102
{ACAD_REACTORS
330
F951
102
}
330
F951
100
AcDbXrecord
280
     1
290
     1
  0
XRECORD
  5
F954
102
{ACAD_REACTORS
330
F953
102
}
330
F953
100
AcDbXrecord
280
     1
290
     1
  0
XRECORD
  5
F956
102
{ACAD_REACTORS
330
F955
102
}
330
F955
100
AcDbXrecord
280
     1
290
     1
  0
XRECORD
  5
F958
102
{ACAD_REACTORS
330
F957
102
}
330
F957
100
AcDbXrecord
280
     1
290
     1
  0
XRECORD
  5
F95A
102
{ACAD_REACTORS
330
F959
102
}
330
F959
100
AcDbXrecord
280
     1
290
     1
  0
XRECORD
  5
F95C
102
{ACAD_REACTORS
330
F95B
102
}
330
F95B
100
AcDbXrecord
280
     1
290
     1
  0
XRECORD
  5
F95E
102
{ACAD_REACTORS
330
F95D
102
}
330
F95D
100
AcDbXrecord
280
     1
290
     1
  0
XRECORD
  5
F960
102
{ACAD_REACTORS
330
F95F
102
}
330
F95F
100
AcDbXrecord
280
     1
290
     1
  0
XRECORD
  5
F962
102
{ACAD_REACTORS
330
F961
102
}
330
F961
100
AcDbXrecord
280
     1
290
     1
  0
XRECORD
  5
F964
102
{ACAD_REACTORS
330
F963
102
}
330
F963
100
AcDbXrecord
280
     1
290
     1
  0
XRECORD
  5
F966
102
{ACAD_REACTORS
330
F965
102
}
330
F965
100
AcDbXrecord
280
     1
290
     1
  0
XRECORD
  5
F968
102
{ACAD_REACTORS
330
F967
102
}
330
F967
100
AcDbXrecord
280
     1
290
     1
  0
XRECORD
  5
F96A
102
{ACAD_REACTORS
330
F969
102
}
330
F969
100
AcDbXrecord
280
     1
290
     1
  0
XRECORD
  5
F96C
102
{ACAD_REACTORS
330
F96B
102
}
330
F96B
100
AcDbXrecord
280
     1
290
     1
  0
XRECORD
  5
F96E
102
{ACAD_REACTORS
330
F96D
102
}
330
F96D
100
AcDbXrecord
280
     1
290
     1
  0
SORTENTSTABLE
  5
6579
102
{ACAD_REACTORS
330
6578
102
}
330
6578
100
AcDbSortentsTable
330
18
331
F82C
  5
F80C
331
E719
  5
E93F
331
E19A
  5
E19A
331
EC8E
  5
F826
331
D532
  5
D532
331
D751
  5
D751
331
FE27
  5
FDEC
331
FE2F
  5
FDF4
331
FE37
  5
FDFC
331
FD7A
  5
FD3F
331
FDF0
  5
FE14
331
E941
  5
EA2F
331
ECB6
  5
F831
331
E39A
  5
E39A
331
F85C
  5
E93D
331
E15B
  5
E15B
331
E4BA
  5
E4BA
331
D35C
  5
D35C
331
D67A
  5
D67A
331
D364
  5
D364
331
FD82
  5
FD47
331
FDF8
  5
FE1C
331
D36C
  5
D36C
331
FD8A
  5
FD4F
331
FE00
  5
FE24
331
D374
  5
D374
331
FE8B
  5
FE8B
331
FD92
  5
FD57
331
FE18
  5
FE3D
331
E183
  5
E183
331
F82D
  5
F80D
331
E71A
  5
E940
331
E19B
  5
E19B
331
D513
  5
D513
331
FE20
  5
FDE5
331
D3FC
  5
D3FC
331
D533
  5
D533
331
FE28
  5
FDED
331
FDE9
  5
FE0C
331
FE30
  5
FDF5
331
FD7B
  5
FD40
331
FDF1
  5
FE15
331
E942
  5
EA30
331
E39B
  5
E39B
331
EC48
  5
F815
331
E15C
  5
E15C
331
E4BB
  5
E4BB
331
F85D
  5
E93E
331
F7CE
  5
F805
331
D35D
  5
D35D
331
D365
  5
D365
331
FD83
  5
FD48
331
FDF9
  5
FE1D
331
D36D
  5
D36D
331
F908
  5
F908
331
FD8B
  5
FD50
331
FE01
  5
FE25
331
D4DC
  5
D4DC
331
FE8C
  5
FE8C
331
FD93
  5
FD58
331
FE19
  5
FE3E
331
EC68
  5
F81A
331
E184
  5
E184
331
F82E
  5
F80E
331
E1A4
  5
E1A4
331
D733
  5
D733
331
D514
  5
D514
331
FE21
  5
FDE6
331
D534
  5
D534
331
D3FD
  5
D3FD
331
FCF4
  5
FCF4
331
FE29
  5
FDEE
331
FE31
  5
FDF6
331
FD74
  5
FD39
331
FDEA
  5
FE0D
331
FD7C
  5
FD41
331
FDF2
  5
FE16
331
E943
  5
EC1D
331
E39C
  5
E39C
331
E15D
  5
E15D
331
E4BC
  5
E4BC
331
D35E
  5
D35E
331
F9B8
  5
F9B8
331
D47D
  5
D47D
331
D366
  5
D366
331
FD84
  5
FD49
331
FDFA
  5
FE1E
331
D36E
  5
D36E
331
FD8C
  5
FD51
331
FE02
  5
FE26
331
FE8D
  5
FE8D
331
FD94
  5
FD59
331
FE1A
  5
FE3F
331
EC69
  5
F81B
331
E185
  5
E185
331
EC89
  5
F822
331
F82F
  5
F811
331
EC91
  5
F828
331
E1A5
  5
E1A5
331
D734
  5
D734
331
D38E
  5
D38E
331
D515
  5
D515
331
FE22
  5
FDE7
331
FE2A
  5
FDEF
331
D675
  5
D675
331
FE32
  5
FDF7
331
FD75
  5
FD3A
331
FDEB
  5
FE0E
331
FD7D
  5
FD42
331
FDF3
  5
FE17
331
E944
  5
EC46
331
E156
  5
E156
331
E4BD
  5
E4BD
331
D41E
  5
D41E
331
D35F
  5
D35F
331
D367
  5
D367
331
FD85
  5
FD4A
331
FDFB
  5
FE1F
331
FD8D
  5
FD52
331
D4DE
  5
D4DE
331
FE8E
  5
FE8E
331
FD95
  5
FD5A
331
FE1B
  5
FE40
331
EC6A
  5
F81C
331
EC8A
  5
F823
331
F830
  5
F812
331
EC92
  5
F829
331
E93D
  5
E941
331
D735
  5
D735
331
D38F
  5
D38F
331
FE23
  5
FDE8
331
FE2B
  5
FDF0
331
D676
  5
D676
331
FE33
  5
FDF8
331
FD76
  5
FD3B
331
FDEC
  5
FE0F
331
FD7E
  5
FD43
331
FDF4
  5
FE18
331
E1AE
  5
E1AE
331
E2EE
  5
E2EE
331
E157
  5
E157
331
E4BE
  5
E4BE
331
D360
  5
D360
331
D368
  5
D368
331
FE87
  5
FE87
331
FD86
  5
FD4B
331
FDFC
  5
FE20
331
FE8F
  5
FE8F
331
F90B
  5
F90B
331
FD8E
  5
FD53
331
FD96
  5
FD5B
331
FDD5
  5
FDD5
331
EC6B
  5
F81D
331
F829
  5
F809
331
F831
  5
F813
331
EC93
  5
F82A
331
E93E
  5
E942
331
7B09
  5
7B09
331
FE24
  5
FDE9
331
FDDD
  5
FDDD
331
FE2C
  5
FDF1
331
FD77
  5
FD3C
331
FDED
  5
FE10
331
FE34
  5
FDF9
331
FD7F
  5
FD44
331
FDF5
  5
FE19
331
ECB3
  5
F82D
331
E2EF
  5
E2EF
331
E158
  5
E158
331
E4BF
  5
E4BF
331
FE38
  5
FDFD
331
D361
  5
D361
331
D480
  5
D480
331
FE88
  5
FE88
331
FD87
  5
FD4C
331
FDFD
  5
FE21
331
FE90
  5
FE90
331
F90C
  5
F90C
331
FD8F
  5
FD54
331
D6E7
  5
D6E7
331
FE15
  5
FE39
331
F82A
  5
F80A
331
E190
  5
E190
331
EC94
  5
F82B
331
E93F
  5
E943
331
D3E1
  5
D3E1
331
D530
  5
D530
331
D74F
  5
D74F
331
FE25
  5
FDEA
331
FE2D
  5
FDF2
331
FDE6
  5
FE09
331
FE35
  5
FDFA
331
FD78
  5
FD3D
331
FDEE
  5
FE11
331
FDF6
  5
FE1A
331
ECB4
  5
F82F
331
EA2F
  5
EC47
331
EC1D
  5
F814
331
E159
  5
E159
331
F85A
  5
E719
331
FE39
  5
FDFE
331
FD80
  5
FD45
331
D36A
  5
D36A
331
FE89
  5
FE89
331
FD88
  5
FD4D
331
FDFE
  5
FE22
331
D372
  5
D372
331
FE91
  5
FE91
331
F90D
  5
F90D
331
FD90
  5
FD55
331
FE16
  5
FE3A
331
E4C0
  5
E4C0
331
F82B
  5
F80B
331
E191
  5
E191
331
EC8D
  5
F825
331
ECA5
  5
F82C
331
D4F9
  5
D4F9
331
7B13
  5
7B13
331
D531
  5
D531
331
FE26
  5
FDEB
331
FE2E
  5
FDF3
331
FDE7
  5
FE0A
331
FE36
  5
FDFB
331
FD79
  5
FD3E
331
FDEF
  5
FE13
331
FDF7
  5
FE1B
331
E940
  5
E944
331
ECB5
  5
F830
331
E399
  5
E399
331
EA30
  5
EC48
331
F5AD
  5
F85D
331
F85B
  5
E71A
331
E15A
  5
E15A
331
D679
  5
D679
331
D35B
  5
D35B
331
D363
  5
D363
331
FD81
  5
FD46
331
D482
  5
D482
331
D36B
  5
D36B
331
FE8A
  5
FE8A
331
FD89
  5
FD4E
331
FDFF
  5
FE23
331
D373
  5
D373
331
FD91
  5
FD56
331
FE17
  5
FE3B
331
FE1F
  5
FDE4
  0
SORTENTSTABLE
  5
F6CF
102
{ACAD_REACTORS
330
D693
102
}
330
D693
100
AcDbSortentsTable
330
D68F
  0
SORTENTSTABLE
  5
F6D1
102
{ACAD_REACTORS
330
D972
102
}
330
D972
100
AcDbSortentsTable
330
D94C
  0
SORTENTSTABLE
  5
F6D0
102
{ACAD_REACTORS
330
DCC0
102
}
330
DCC0
100
AcDbSortentsTable
330
DC90
  0
SORTENTSTABLE
  5
FAD2
102
{ACAD_REACTORS
330
FAD1
102
}
330
FAD1
100
AcDbSortentsTable
330
DCFB
  0
SORTENTSTABLE
  5
FBC4
102
{ACAD_REACTORS
330
FBC3
102
}
330
FBC3
100
AcDbSortentsTable
330
DE4E
  0
SORTENTSTABLE
  5
FCBF
102
{ACAD_REACTORS
330
FCBE
102
}
330
FCBE
100
AcDbSortentsTable
330
FCBD
  0
XRECORD
  5
FEE0
102
{ACAD_REACTORS
330
FEDF
102
}
330
FEDF
100
AcDbXrecord
280
     1
340
F7BB
  0
GROUP
  5
E4C1
102
{ACAD_REACTORS
330
D
102
}
330
D
100
AcDbGroup
300

 70
     1
 71
     1
340
E4BF
340
E4BE
340
E4BD
340
E4BC
340
E4BB
340
E4BA
  0
IMAGEDEF
  5
F905
102
{ACAD_REACTORS
330
F904
102
}
330
F904
100
AcDbRasterImageDef
 90
        0
  1
C:\Users\Ryan\Desktop\Monier_Logo_CMYK.jpg
 10
283.0
 20
124.0
 11
0.0035335689045936
 21
0.0035335689045936
280
     1
281
     0
  0
LAYOUT
  5
F790
102
{ACAD_REACTORS
330
8F
102
}
330
8F
100
AcDbPlotSettings
  1

  2
D:\00-Tegn-std\Witraz-cad\Plotters\HP5000N-2sal-PS.pc3
  4

  6

 40
0.0
 41
0.0
 42
0.0
 43
0.0
 44
0.0
 45
0.0
 46
0.0
 47
0.0
 48
0.0
 49
0.0
140
0.0
141
0.0
142
1.0
143
1.0
 70
   688
 72
     0
 73
     0
 74
     5
  7
monochrome.ctb
 75
    16
147
1.0
 76
     0
 77
     2
 78
   300
148
0.0
149
0.0
100
AcDbLayout
  1
Layout1
 70
     1
 71
     1
 10
0.0
 20
0.0
 11
12.0
 21
9.0
 12
0.0
 22
0.0
 32
0.0
 14
0.0
 24
0.0
 34
0.0
 15
0.0
 25
0.0
 35
0.0
146
0.0
 13
0.0
 23
0.0
 33
0.0
 16
1.0
 26
0.0
 36
0.0
 17
0.0
 27
1.0
 37
0.0
 76
     0
330
F78F
  0
LAYOUT
  5
91
102
{ACAD_XDICTIONARY
360
F8AE
102
}
102
{ACAD_REACTORS
330
8F
102
}
330
8F
100
AcDbPlotSettings
  1

  2
DWG To PDF.pc3
  4
ISO_full_bleed_A4_(210.00_x_297.00_MM)
  6

 40
0.7937499880790711
 41
0.7937499880790711
 42
0.7937469482421875
 43
0.79376220703125
 44
210.0
 45
297.0
 46
1.589282083825054
 47
0.0
 48
-2453.860138353379
 49
-1029.284786857553
140
-473.8601383533787
141
1820.715213142446
142
1.0
143
9.647527161689698
 70
 11956
 72
     1
 73
     0
 74
     4
  7
monochrome.ctb
 75
     0
147
0.1036535044929437
 76
     0
 77
     2
 78
   300
148
2453.860138353379
149
1029.284786857553
100
AcDbLayout
  1
Model
 70
     1
 71
     0
 10
0.0
 20
0.0
 11
12.0
 21
9.0
 12
0.0
 22
0.0
 32
0.0
 14
0.0
 24
0.0
 34
0.0
 15
0.0
 25
0.0
 35
0.0
146
0.0
 13
0.0
 23
0.0
 33
0.0
 16
1.0
 26
0.0
 36
0.0
 17
0.0
 27
1.0
 37
0.0
 76
     0
330
18
331
F7A9
1001
ACAD_PSEXT
1000
DWG To PDF.pc3
1000
DWG To PDF
1000
File
1000

1070
     0
  0
MATERIAL
  5
F7B2
102
{ACAD_XDICTIONARY
360
FEE3
102
}
102
{ACAD_REACTORS
330
8D
102
}
330
8D
100
AcDbMaterial
  1
ByBlock
 73
     1
 78
     1
172
     1
176
     1
270
     1
274
     1
  0
MATERIAL
  5
F7B1
102
{ACAD_XDICTIONARY
360
FEE1
102
}
102
{ACAD_REACTORS
330
8D
102
}
330
8D
100
AcDbMaterial
  1
ByLayer
 73
     1
 78
     1
172
     1
176
     1
270
     1
274
     1
  0
MATERIAL
  5
F7B3
102
{ACAD_XDICTIONARY
360
FEE5
102
}
102
{ACAD_REACTORS
330
8D
102
}
330
8D
100
AcDbMaterial
  1
Global
 73
     1
 78
     1
172
     1
176
     1
270
     1
274
     1
  0
MLEADERSTYLE
  5
F851
102
{ACAD_XDICTIONARY
360
FE9F
102
}
102
{ACAD_REACTORS
330
F850
102
}
330
F850
100
AcDbMLeaderStyle
170
     2
171
     1
172
     0
 90
        2
 40
0.0
 41
0.0
173
     1
 91
-1056964608
340
12
 92
       -2
290
     1
 42
2.0
291
     1
 43
0.36
  3
Standard
 44
4.0
300

342
F
174
     1
178
     6
175
     1
176
     0
 93
-1056964608
 45
4.0
292
     0
297
     0
 46
4.0
 94
-1056964608
 47
1.0
 49
1.0
140
1.0
293
     1
141
0.0
294
     1
177
     0
142
1.0
295
     0
296
     0
143
0.125
1001
ACAD_MLEADERVER
1070
     2
  0
MLINESTYLE
  5
1C
102
{ACAD_REACTORS
330
1B
102
}
330
1B
100
AcDbMlineStyle
  2
STANDARD
 70
     0
  3

 62
   256
 51
90.0
 52
90.0
 71
     2
 49
0.5
 62
   256
  6
BYLAYER
 49
-0.5
 62
   256
  6
BYLAYER
  0
ACDBPLACEHOLDER
  5
8C
102
{ACAD_REACTORS
330
8B
102
}
330
8B
  0
SCALE
  5
F83F
102
{ACAD_REACTORS
330
F83E
102
}
330
F83E
100
AcDbScale
 70
     0
300
1:1
140
1.0
141
1.0
290
     1
  0
SCALE
  5
F840
102
{ACAD_REACTORS
330
F83E
102
}
330
F83E
100
AcDbScale
 70
     0
300
1:2
140
1.0
141
2.0
290
     0
  0
SCALE
  5
F841
102
{ACAD_REACTORS
330
F83E
102
}
330
F83E
100
AcDbScale
 70
     0
300
1:4
140
1.0
141
4.0
290
     0
  0
SCALE
  5
F842
102
{ACAD_REACTORS
330
F83E
102
}
330
F83E
100
AcDbScale
 70
     0
300
1:5
140
1.0
141
5.0
290
     0
  0
SCALE
  5
F843
102
{ACAD_REACTORS
330
F83E
102
}
330
F83E
100
AcDbScale
 70
     0
300
1:8
140
1.0
141
8.0
290
     0
  0
SCALE
  5
F844
102
{ACAD_REACTORS
330
F83E
102
}
330
F83E
100
AcDbScale
 70
     0
300
1:10
140
1.0
141
10.0
290
     0
  0
SCALE
  5
F845
102
{ACAD_REACTORS
330
F83E
102
}
330
F83E
100
AcDbScale
 70
     0
300
1:16
140
1.0
141
16.0
290
     0
  0
SCALE
  5
F846
102
{ACAD_REACTORS
330
F83E
102
}
330
F83E
100
AcDbScale
 70
     0
300
1:20
140
1.0
141
20.0
290
     0
  0
SCALE
  5
F847
102
{ACAD_REACTORS
330
F83E
102
}
330
F83E
100
AcDbScale
 70
     0
300
1:30
140
1.0
141
30.0
290
     0
  0
SCALE
  5
F848
102
{ACAD_REACTORS
330
F83E
102
}
330
F83E
100
AcDbScale
 70
     0
300
1:40
140
1.0
141
40.0
290
     0
  0
SCALE
  5
F849
102
{ACAD_REACTORS
330
F83E
102
}
330
F83E
100
AcDbScale
 70
     0
300
1:50
140
1.0
141
50.0
290
     0
  0
SCALE
  5
F84A
102
{ACAD_REACTORS
330
F83E
102
}
330
F83E
100
AcDbScale
 70
     0
300
1:100
140
1.0
141
100.0
290
     0
  0
SCALE
  5
F84B
102
{ACAD_REACTORS
330
F83E
102
}
330
F83E
100
AcDbScale
 70
     0
300
2:1
140
2.0
141
1.0
290
     0
  0
SCALE
  5
F84C
102
{ACAD_REACTORS
330
F83E
102
}
330
F83E
100
AcDbScale
 70
     0
300
4:1
140
4.0
141
1.0
290
     0
  0
SCALE
  5
F84D
102
{ACAD_REACTORS
330
F83E
102
}
330
F83E
100
AcDbScale
 70
     0
300
8:1
140
8.0
141
1.0
290
     0
  0
SCALE
  5
F84E
102
{ACAD_REACTORS
330
F83E
102
}
330
F83E
100
AcDbScale
 70
     0
300
10:1
140
10.0
141
1.0
290
     0
  0
SCALE
  5
F84F
102
{ACAD_REACTORS
330
F83E
102
}
330
F83E
100
AcDbScale
 70
     0
300
100:1
140
100.0
141
1.0
290
     0
  0
TABLESTYLE
  5
F7C6
102
{ACAD_XDICTIONARY
360
F8B0
102
}
102
{ACAD_REACTORS
330
F7C5
102
}
330
F7C5
100
AcDbTableStyle
  3
Standard
 70
     0
 71
     0
 40
1.5
 41
1.5
280
     0
281
     0
  7
STANDARD
140
4.5
170
     2
 62
     0
 63
     7
283
     0
274
    -2
284
     1
 64
     0
275
    -2
285
     1
 65
     0
276
    -2
286
     1
 66
     0
277
    -2
287
     1
 67
     0
278
    -2
288
     1
 68
     0
279
    -2
289
     1
 69
     0
  7
STANDARD
140
6.0
170
     5
 62
     0
 63
     7
283
     0
274
    -2
284
     1
 64
     0
275
    -2
285
     1
 65
     0
276
    -2
286
     1
 66
     0
277
    -2
287
     1
 67
     0
278
    -2
288
     1
 68
     0
279
    -2
289
     1
 69
     0
  7
STANDARD
140
4.5
170
     5
 62
     0
 63
     7
283
     0
274
    -2
284
     1
 64
     0
275
    -2
285
     1
 65
     0
276
    -2
286
     1
 66
     0
277
    -2
287
     1
 67
     0
278
    -2
288
     1
 68
     0
279
    -2
289
     1
 69
     0
  0
VISUALSTYLE
  5
F7BA
102
{ACAD_XDICTIONARY
360
FEF1
102
}
102
{ACAD_REACTORS
330
F7B4
102
}
330
F7B4
100
AcDbVisualStyle
  2
2dWireframe
 70
     4
 71
     0
 72
     2
 73
     0
 90
        0
 40
-0.6
 41
-30.0
 62
     5
 63
     7
421
 16777215
 74
     1
 91
        4
 64
     7
 65
   257
 75
     1
175
     1
 42
1.0
 92
        0
 66
   257
 43
1.0
 76
     1
 77
     6
 78
     2
 67
     7
 79
     5
170
     0
171
     0
290
     0
174
     0
 93
        1
 44
0.0
173
     0
291
     0
 45
0.0
1001
ACAD
1000
AcDbSavedByObjectVersion
1070
     0
  0
VISUALSTYLE
  5
F7BC
102
{ACAD_XDICTIONARY
360
FEF5
102
}
102
{ACAD_REACTORS
330
F7B4
102
}
330
F7B4
100
AcDbVisualStyle
  2
3D Hidden
 70
     6
 71
     1
 72
     2
 73
     2
 90
        0
 40
-0.6
 41
-30.0
 62
     5
 63
     7
421
 16777215
 74
     2
 91
        2
 64
     7
 65
   257
 75
     2
175
     1
 42
40.0
 92
        0
 66
   257
 43
1.0
 76
     1
 77
     6
 78
     2
 67
     7
 79
     3
170
     0
171
     0
290
     0
174
     0
 93
        1
 44
0.0
173
     0
291
     0
 45
0.0
1001
ACAD
1000
AcDbSavedByObjectVersion
1070
     0
  0
VISUALSTYLE
  5
F7BB
102
{ACAD_XDICTIONARY
360
FEF3
102
}
102
{ACAD_REACTORS
330
F7B4
102
}
330
F7B4
100
AcDbVisualStyle
  2
3dWireframe
 70
     5
 71
     0
 72
     2
 73
     0
 90
        0
 40
-0.6
 41
-30.0
 62
     5
 63
     7
421
 16777215
 74
     1
 91
        4
 64
     7
 65
   257
 75
     1
175
     1
 42
1.0
 92
        0
 66
   257
 43
1.0
 76
     1
 77
     6
 78
     2
 67
     7
 79
     5
170
     0
171
     0
290
     0
174
     0
 93
        1
 44
0.0
173
     0
291
     0
 45
0.0
1001
ACAD
1000
AcDbSavedByObjectVersion
1070
     0
  0
VISUALSTYLE
  5
F7B9
102
{ACAD_XDICTIONARY
360
FEEF
102
}
102
{ACAD_REACTORS
330
F7B4
102
}
330
F7B4
100
AcDbVisualStyle
  2
Basic
 70
     7
 71
     1
 72
     0
 73
     1
 90
        0
 40
-0.6
 41
-30.0
 62
     5
 63
     7
421
 16777215
 74
     0
 91
        4
 64
     7
 65
   257
 75
     1
175
     1
 42
1.0
 92
        8
 66
     7
 43
1.0
 76
     1
 77
     6
 78
     2
 67
     7
 79
     5
170
     0
171
     0
290
     0
174
     0
 93
        1
 44
0.0
173
     0
291
     1
 45
0.0
1001
ACAD
1000
AcDbSavedByObjectVersion
1070
     0
  0
VISUALSTYLE
  5
F7C0
102
{ACAD_XDICTIONARY
360
FEFD
102
}
102
{ACAD_REACTORS
330
F7B4
102
}
330
F7B4
100
AcDbVisualStyle
  2
Brighten
 70
    12
 71
     2
 72
     2
 73
     0
 90
        0
 40
-0.6
 41
-30.0
 62
     5
 63
     7
421
 16777215
 74
     1
 91
        4
 64
     7
 65
   257
 75
     1
175
     1
 42
1.0
 92
        8
 66
     7
 43
1.0
 76
     1
 77
     6
 78
     2
 67
     7
 79
     5
170
     0
171
     0
290
     0
174
     0
 93
        1
 44
50.0
173
     0
291
     1
 45
0.0
1001
ACAD
1000
AcDbSavedByObjectVersion
1070
     0
  0
VISUALSTYLE
  5
F7C4
102
{ACAD_XDICTIONARY
360
FF05
102
}
102
{ACAD_REACTORS
330
F7B4
102
}
330
F7B4
100
AcDbVisualStyle
  2
ColorChange
 70
    16
 71
     2
 72
     2
 73
     3
 90
        0
 40
-0.6
 41
-30.0
 62
     5
 63
     8
421
  8421504
 74
     1
 91
        4
 64
     7
 65
   257
 75
     1
175
     1
 42
1.0
 92
        8
 66
     8
424
  8421504
 43
1.0
 76
     1
 77
     6
 78
     2
 67
     7
 79
     5
170
     0
171
     0
290
     0
174
     0
 93
        1
 44
0.0
173
     0
291
     1
 45
0.0
1001
ACAD
1000
AcDbSavedByObjectVersion
1070
     0
  0
VISUALSTYLE
  5
F7BD
102
{ACAD_XDICTIONARY
360
FEF7
102
}
102
{ACAD_REACTORS
330
F7B4
102
}
330
F7B4
100
AcDbVisualStyle
  2
Conceptual
 70
     9
 71
     3
 72
     2
 73
     0
 90
        0
 40
-0.6
 41
-30.0
 62
     5
 63
     7
421
 16777215
 74
     2
 91
        2
 64
     7
 65
   257
 75
     1
175
     1
 42
40.0
 92
        8
 66
     7
 43
1.0
 76
     1
 77
     6
 78
     2
 67
     7
 79
     3
170
     0
171
     0
290
     0
174
     0
 93
        1
 44
0.0
173
     0
291
     0
 45
0.0
1001
ACAD
1000
AcDbSavedByObjectVersion
1070
     0
  0
VISUALSTYLE
  5
F7BF
102
{ACAD_XDICTIONARY
360
FEFB
102
}
102
{ACAD_REACTORS
330
F7B4
102
}
330
F7B4
100
AcDbVisualStyle
  2
Dim
 70
    11
 71
     2
 72
     2
 73
     0
 90
        0
 40
-0.6
 41
-30.0
 62
     5
 63
     7
421
 16777215
 74
     1
 91
        4
 64
     7
 65
   257
 75
     1
175
     1
 42
1.0
 92
        8
 66
     7
 43
1.0
 76
     1
 77
     6
 78
     2
 67
     7
 79
     5
170
     0
171
     0
290
     0
174
     0
 93
        1
 44
-50.0
173
     0
291
     1
 45
0.0
1001
ACAD
1000
AcDbSavedByObjectVersion
1070
     0
  0
VISUALSTYLE
  5
F83D
102
{ACAD_XDICTIONARY
360
FF1A
102
}
102
{ACAD_REACTORS
330
F7B4
102
}
330
F7B4
100
AcDbVisualStyle
  2
EdgeColorOff
 70
    22
 71
     2
 72
     2
 73
     0
 90
        0
 40
-0.6
 41
-30.0
 62
     5
 63
     7
421
 16777215
 74
     1
 91
        4
 64
     7
 65
   257
 75
     1
175
     1
 42
1.0
 92
        8
 66
     7
 43
1.0
 76
     1
 77
     6
 78
     2
 67
     7
 79
     5
170
     0
171
     0
290
     0
174
     0
 93
        1
 44
0.0
173
     0
291
     1
 45
0.0
1001
ACAD
1000
AcDbSavedByObjectVersion
1070
     0
  0
VISUALSTYLE
  5
F7C3
102
{ACAD_XDICTIONARY
360
FF03
102
}
102
{ACAD_REACTORS
330
F7B4
102
}
330
F7B4
100
AcDbVisualStyle
  2
Facepattern
 70
    15
 71
     2
 72
     2
 73
     0
 90
        0
 40
-0.6
 41
-30.0
 62
     5
 63
     7
421
 16777215
 74
     1
 91
        4
 64
     7
 65
   257
 75
     1
175
     1
 42
1.0
 92
        8
 66
     7
 43
1.0
 76
     1
 77
     6
 78
     2
 67
     7
 79
     5
170
     0
171
     0
290
     0
174
     0
 93
        1
 44
0.0
173
     0
291
     1
 45
0.0
1001
ACAD
1000
AcDbSavedByObjectVersion
1070
     0
  0
VISUALSTYLE
  5
F7B5
102
{ACAD_XDICTIONARY
360
FEE7
102
}
102
{ACAD_REACTORS
330
F7B4
102
}
330
F7B4
100
AcDbVisualStyle
  2
Flat
 70
     0
 71
     2
 72
     1
 73
     1
 90
        2
 40
-0.6
 41
30.0
 62
     5
 63
     7
421
 16777215
 74
     0
 91
        4
 64
     7
 65
   257
 75
     1
175
     1
 42
1.0
 92
        8
 66
     7
 43
1.0
 76
     1
 77
     6
 78
     2
 67
     7
 79
     5
170
     0
171
     0
290
     0
174
     0
 93
       13
 44
0.0
173
     0
291
     1
 45
0.0
1001
ACAD
1000
AcDbSavedByObjectVersion
1070
     0
  0
VISUALSTYLE
  5
F7B6
102
{ACAD_XDICTIONARY
360
FEE9
102
}
102
{ACAD_REACTORS
330
F7B4
102
}
330
F7B4
100
AcDbVisualStyle
  2
FlatWithEdges
 70
     1
 71
     2
 72
     1
 73
     1
 90
        2
 40
-0.6
 41
30.0
 62
     5
 63
     7
421
 16777215
 74
     1
 91
        4
 64
     7
 65
   257
 75
     1
175
     1
 42
1.0
 92
        0
 66
   257
 43
1.0
 76
     1
 77
     6
 78
     2
 67
     7
 79
     5
170
     0
171
     0
290
     0
174
     0
 93
       13
 44
0.0
173
     0
291
     1
 45
0.0
1001
ACAD
1000
AcDbSavedByObjectVersion
1070
     0
  0
VISUALSTYLE
  5
F7B7
102
{ACAD_XDICTIONARY
360
FEEB
102
}
102
{ACAD_REACTORS
330
F7B4
102
}
330
F7B4
100
AcDbVisualStyle
  2
Gouraud
 70
     2
 71
     2
 72
     2
 73
     1
 90
        2
 40
-0.6
 41
30.0
 62
     5
 63
     7
421
 16777215
 74
     0
 91
        4
 64
     7
 65
   257
 75
     1
175
     1
 42
1.0
 92
        0
 66
     7
 43
1.0
 76
     1
 77
     6
 78
     2
 67
     7
 79
     5
170
     0
171
     0
290
     0
174
     0
 93
       13
 44
0.0
173
     0
291
     1
 45
0.0
1001
ACAD
1000
AcDbSavedByObjectVersion
1070
     0
  0
VISUALSTYLE
  5
F7B8
102
{ACAD_XDICTIONARY
360
FEED
102
}
102
{ACAD_REACTORS
330
F7B4
102
}
330
F7B4
100
AcDbVisualStyle
  2
GouraudWithEdges
 70
     3
 71
     2
 72
     2
 73
     1
 90
        2
 40
-0.6
 41
30.0
 62
     5
 63
     7
421
 16777215
 74
     1
 91
        4
 64
     7
 65
   257
 75
     1
175
     1
 42
1.0
 92
        0
 66
   257
 43
1.0
 76
     1
 77
     6
 78
     2
 67
     7
 79
     5
170
     0
171
     0
290
     0
174
     0
 93
       13
 44
0.0
173
     0
291
     1
 45
0.0
1001
ACAD
1000
AcDbSavedByObjectVersion
1070
     0
  0
VISUALSTYLE
  5
F835
102
{ACAD_XDICTIONARY
360
FF0A
102
}
102
{ACAD_REACTORS
330
F7B4
102
}
330
F7B4
100
AcDbVisualStyle
  2
Hidden
 70
     6
 71
     1
 72
     2
 73
     2
 90
        0
 40
-0.6
 41
-30.0
 62
     5
 63
     7
421
 16777215
 74
     2
 91
        2
 64
     7
 65
   257
 75
     2
175
     1
 42
40.0
 92
        0
 66
   257
 43
1.0
 76
     1
 77
     6
 78
     2
 67
     7
 79
     3
170
     0
171
     0
290
     0
174
     0
 93
        1
 44
0.0
173
     0
291
     0
 45
0.0
1001
ACAD
1000
AcDbSavedByObjectVersion
1070
     0
  0
VISUALSTYLE
  5
F83B
102
{ACAD_XDICTIONARY
360
FF16
102
}
102
{ACAD_REACTORS
330
F7B4
102
}
330
F7B4
100
AcDbVisualStyle
  2
JitterOff
 70
    20
 71
     2
 72
     2
 73
     0
 90
        0
 40
-0.6
 41
-30.0
 62
     5
 63
     7
421
 16777215
 74
     1
 91
        4
 64
     7
 65
   257
 75
     1
175
     1
 42
1.0
 92
       10
 66
     7
 43
1.0
 76
     1
 77
     6
 78
     2
 67
     7
 79
     5
170
     0
171
     0
290
     0
174
     0
 93
        1
 44
0.0
173
     0
291
     1
 45
0.0
1001
ACAD
1000
AcDbSavedByObjectVersion
1070
     0
  0
VISUALSTYLE
  5
F7C2
102
{ACAD_XDICTIONARY
360
FF01
102
}
102
{ACAD_REACTORS
330
F7B4
102
}
330
F7B4
100
AcDbVisualStyle
  2
Linepattern
 70
    14
 71
     2
 72
     2
 73
     0
 90
        0
 40
-0.6
 41
-30.0
 62
     5
 63
     7
421
 16777215
 74
     1
 91
        4
 64
     7
 65
   257
 75
     7
175
     7
 42
1.0
 92
        8
 66
     7
 43
1.0
 76
     1
 77
     6
 78
     2
 67
     7
 79
     5
170
     0
171
     0
290
     0
174
     0
 93
        1
 44
0.0
173
     0
291
     1
 45
0.0
1001
ACAD
1000
AcDbSavedByObjectVersion
1070
     0
  0
VISUALSTYLE
  5
F83C
102
{ACAD_XDICTIONARY
360
FF18
102
}
102
{ACAD_REACTORS
330
F7B4
102
}
330
F7B4
100
AcDbVisualStyle
  2
OverhangOff
 70
    21
 71
     2
 72
     2
 73
     0
 90
        0
 40
-0.6
 41
-30.0
 62
     5
 63
     7
421
 16777215
 74
     1
 91
        4
 64
     7
 65
   257
 75
     1
175
     1
 42
1.0
 92
        9
 66
     7
 43
1.0
 76
     1
 77
     6
 78
     2
 67
     7
 79
     5
170
     0
171
     0
290
     0
174
     0
 93
        1
 44
0.0
173
     0
291
     1
 45
0.0
1001
ACAD
1000
AcDbSavedByObjectVersion
1070
     0
  0
VISUALSTYLE
  5
F7BE
102
{ACAD_XDICTIONARY
360
FEF9
102
}
102
{ACAD_REACTORS
330
F7B4
102
}
330
F7B4
100
AcDbVisualStyle
  2
Realistic
 70
     8
 71
     2
 72
     2
 73
     0
 90
        0
 40
-0.6
 41
-30.0
 62
     5
 63
     7
421
 16777215
 74
     1
 91
        0
 64
     7
 65
   257
 75
     1
175
     1
 42
1.0
 92
        8
 66
     8
424
  7895160
 43
1.0
 76
     1
 77
     6
 78
     2
 67
     7
 79
     5
170
     0
171
     0
290
     0
174
     0
 93
       13
 44
0.0
173
     0
291
     0
 45
0.0
1001
ACAD
1000
AcDbSavedByObjectVersion
1070
     0
  0
VISUALSTYLE
  5
F83A
102
{ACAD_XDICTIONARY
360
FF14
102
}
102
{ACAD_REACTORS
330
F7B4
102
}
330
F7B4
100
AcDbVisualStyle
  2
Shaded
 70
    27
 71
     2
 72
     2
 73
     1
 90
        2
 40
-0.6
 41
30.0
 62
     5
 63
     7
421
 16777215
 74
     0
 91
        4
 64
     7
 65
   257
 75
     1
175
     1
 42
1.0
 92
        8
 66
   257
 43
1.0
 76
     1
 77
     6
 78
     2
 67
     8
425
  7895160
 79
     3
170
     0
171
     0
290
     0
174
     0
 93
        5
 44
0.0
173
     0
291
     0
 45
0.0
1001
ACAD
1000
AcDbSavedByObjectVersion
1070
     0
  0
VISUALSTYLE
  5
F839
102
{ACAD_XDICTIONARY
360
FF12
102
}
102
{ACAD_REACTORS
330
F7B4
102
}
330
F7B4
100
AcDbVisualStyle
  2
Shaded with edges
 70
    26
 71
     2
 72
     2
 73
     1
 90
        2
 40
-0.6
 41
30.0
 62
     5
 63
     7
421
 16777215
 74
     1
 91
       10
 64
     7
 65
   257
 75
     2
175
     1
 42
1.0
 92
        8
 66
   257
 43
1.0
 76
     1
 77
     6
 78
     2
 67
     7
 79
     3
170
     0
171
     0
290
     0
174
     0
 93
        5
 44
0.0
173
     0
291
     0
 45
0.0
1001
ACAD
1000
AcDbSavedByObjectVersion
1070
     0
  0
VISUALSTYLE
  5
F836
102
{ACAD_XDICTIONARY
360
FF0C
102
}
102
{ACAD_REACTORS
330
F7B4
102
}
330
F7B4
100
AcDbVisualStyle
  2
Shades of Gray
 70
    23
 71
     2
 72
     2
 73
     3
 90
        0
 40
-0.6
 41
-30.0
 62
     5
 63
     7
421
 16777215
 74
     2
 91
        2
 64
     7
 65
     7
 75
     1
175
     1
 42
40.0
 92
        8
 66
     7
 43
1.0
 76
     1
 77
     6
 78
     2
 67
     7
 79
     3
170
     0
171
     0
290
     0
174
     0
 93
        1
 44
0.0
173
     0
291
     0
 45
0.0
1001
ACAD
1000
AcDbSavedByObjectVersion
1070
     0
  0
VISUALSTYLE
  5
F837
102
{ACAD_XDICTIONARY
360
FF0E
102
}
102
{ACAD_REACTORS
330
F7B4
102
}
330
F7B4
100
AcDbVisualStyle
  2
Sketchy
 70
    24
 71
     1
 72
     2
 73
     2
 90
        0
 40
-0.6
 41
-30.0
 62
     5
 63
     7
421
 16777215
 74
     2
 91
        2
 64
     7
 65
     7
 75
     1
175
     1
 42
40.0
 92
       11
 66
     7
 43
1.0
 76
     1
 77
     6
 78
     2
 67
     7
 79
     6
170
     0
171
     0
290
     0
174
     0
 93
        1
 44
0.0
173
     0
291
     0
 45
0.0
1001
ACAD
1000
AcDbSavedByObjectVersion
1070
     0
  0
VISUALSTYLE
  5
F7C1
102
{ACAD_XDICTIONARY
360
FEFF
102
}
102
{ACAD_REACTORS
330
F7B4
102
}
330
F7B4
100
AcDbVisualStyle
  2
Thicken
 70
    13
 71
     2
 72
     2
 73
     0
 90
        0
 40
-0.6
 41
-30.0
 62
     5
 63
     7
421
 16777215
 74
     1
 91
        4
 64
     7
 65
   257
 75
     1
175
     1
 42
1.0
 92
       12
 66
     7
 43
1.0
 76
     1
 77
     6
 78
     2
 67
     7
 79
     5
170
     0
171
     0
290
     0
174
     0
 93
        1
 44
0.0
173
     0
291
     1
 45
0.0
1001
ACAD
1000
AcDbSavedByObjectVersion
1070
     0
  0
VISUALSTYLE
  5
F834
102
{ACAD_XDICTIONARY
360
FF08
102
}
102
{ACAD_REACTORS
330
F7B4
102
}
330
F7B4
100
AcDbVisualStyle
  2
Wireframe
 70
     5
 71
     0
 72
     2
 73
     0
 90
        0
 40
-0.6
 41
-30.0
 62
     5
 63
     7
421
 16777215
 74
     1
 91
        4
 64
     7
 65
   257
 75
     1
175
     1
 42
1.0
 92
        0
 66
   257
 43
1.0
 76
     1
 77
     6
 78
     2
 67
     7
 79
     3
170
     0
171
     0
290
     0
174
     0
 93
        1
 44
0.0
173
     0
291
     0
 45
0.0
1001
ACAD
1000
AcDbSavedByObjectVersion
1070
     0
  0
VISUALSTYLE
  5
F838
102
{ACAD_XDICTIONARY
360
FF10
102
}
102
{ACAD_REACTORS
330
F7B4
102
}
330
F7B4
100
AcDbVisualStyle
  2
X-Ray
 70
    25
 71
     2
 72
     2
 73
     1
 90
        1
 40
0.5
 41
-30.0
 62
     5
 63
     7
421
 16777215
 74
     1
 91
        0
 64
     7
 65
   257
 75
     1
175
     1
 42
1.0
 92
        8
 66
     7
 43
1.0
 76
     1
 77
     6
 78
     2
 67
     7
 79
     3
170
     0
171
     0
290
     0
174
     0
 93
       13
 44
0.0
173
     0
291
     0
 45
0.0
1001
ACAD
1000
AcDbSavedByObjectVersion
1070
     0
  0
DICTIONARYVAR
  5
F8EC
102
{ACAD_REACTORS
330
49F
102
}
330
49F
100
DictionaryVariables
280
     0
  1
1:1
  0
DICTIONARYVAR
  5
F8EA
102
{ACAD_REACTORS
330
49F
102
}
330
49F
100
DictionaryVariables
280
     0
  1
STANDARD
  0
DICTIONARYVAR
  5
F832
102
{ACAD_REACTORS
330
49F
102
}
330
49F
100
DictionaryVariables
280
     0
  1
STANDARD
  0
DICTIONARYVAR
  5
4A0
102
{ACAD_REACTORS
330
49F
102
}
330
49F
100
DictionaryVariables
280
     0
  1
1
  0
DICTIONARYVAR
  5
F8EE
102
{ACAD_REACTORS
330
49F
102
}
330
49F
100
DictionaryVariables
280
     0
  1
1
  0
DICTIONARYVAR
  5
F8EF
102
{ACAD_REACTORS
330
49F
102
}
330
49F
100
DictionaryVariables
280
     0
  1
15
  0
DICTIONARYVAR
  5
F8ED
102
{ACAD_REACTORS
330
49F
102
}
330
49F
100
DictionaryVariables
280
     0
  1
0
  0
DICTIONARYVAR
  5
F8EB
102
{ACAD_REACTORS
330
49F
102
}
330
49F
100
DictionaryVariables
280
     0
  1
0
  0
DICTIONARYVAR
  5
4A1
102
{ACAD_REACTORS
330
49F
102
}
330
49F
100
DictionaryVariables
280
     0
  1

  0
XRECORD
  5
1D0
102
{ACAD_REACTORS
330
BF
102
}
330
BF
100
AcDbXrecord
280
     1
 91
      511
330
E
 90
        8
 62
     7
370
    -3
331
14
  1
Color_7
  0
DICTIONARY
  5
F8AE
330
91
100
AcDbDictionary
280
     1
281
     1
  3
ADSK_XREC_LAYOUTTHUMBNAIL
360
F8AF
  0
DICTIONARY
  5
FEE3
330
F7B2
100
AcDbDictionary
280
     1
281
     1
  3
ACAD_XREC_ROUNDTRIP
360
FEE4
  0
DICTIONARY
  5
FEE1
330
F7B1
100
AcDbDictionary
280
     1
281
     1
  3
ACAD_XREC_ROUNDTRIP
360
FEE2
  0
DICTIONARY
  5
FEE5
330
F7B3
100
AcDbDictionary
280
     1
281
     1
  3
ACAD_XREC_ROUNDTRIP
360
FEE6
  0
DICTIONARY
  5
FE9F
330
F851
100
AcDbDictionary
280
     1
281
     1
  3
ACAD_XREC_ROUNDTRIP
360
FEA0
  0
DICTIONARY
  5
F8B0
330
F7C6
100
AcDbDictionary
280
     1
281
     1
  3
ACAD_ROUNDTRIP_2008_TABLESTYLE_CELLSTYLEMAP
360
FEDD
  3
ACAD_XREC_ROUNDTRIP
360
FF07
  0
DICTIONARY
  5
FEF1
330
F7BA
100
AcDbDictionary
280
     1
281
     1
  3
ACAD_XREC_ROUNDTRIP
360
FEF2
  0
DICTIONARY
  5
FEF5
330
F7BC
100
AcDbDictionary
280
     1
281
     1
  3
ACAD_XREC_ROUNDTRIP
360
FEF6
  0
DICTIONARY
  5
FEF3
330
F7BB
100
AcDbDictionary
280
     1
281
     1
  3
ACAD_XREC_ROUNDTRIP
360
FEF4
  0
DICTIONARY
  5
FEEF
330
F7B9
100
AcDbDictionary
280
     1
281
     1
  3
ACAD_XREC_ROUNDTRIP
360
FEF0
  0
DICTIONARY
  5
FEFD
330
F7C0
100
AcDbDictionary
280
     1
281
     1
  3
ACAD_XREC_ROUNDTRIP
360
FEFE
  0
DICTIONARY
  5
FF05
330
F7C4
100
AcDbDictionary
280
     1
281
     1
  3
ACAD_XREC_ROUNDTRIP
360
FF06
  0
DICTIONARY
  5
FEF7
330
F7BD
100
AcDbDictionary
280
     1
281
     1
  3
ACAD_XREC_ROUNDTRIP
360
FEF8
  0
DICTIONARY
  5
FEFB
330
F7BF
100
AcDbDictionary
280
     1
281
     1
  3
ACAD_XREC_ROUNDTRIP
360
FEFC
  0
DICTIONARY
  5
FF1A
330
F83D
100
AcDbDictionary
280
     1
281
     1
  3
ACAD_XREC_ROUNDTRIP
360
FF1B
  0
DICTIONARY
  5
FF03
330
F7C3
100
AcDbDictionary
280
     1
281
     1
  3
ACAD_XREC_ROUNDTRIP
360
FF04
  0
DICTIONARY
  5
FEE7
330
F7B5
100
AcDbDictionary
280
     1
281
     1
  3
ACAD_XREC_ROUNDTRIP
360
FEE8
  0
DICTIONARY
  5
FEE9
330
F7B6
100
AcDbDictionary
280
     1
281
     1
  3
ACAD_XREC_ROUNDTRIP
360
FEEA
  0
DICTIONARY
  5
FEEB
330
F7B7
100
AcDbDictionary
280
     1
281
     1
  3
ACAD_XREC_ROUNDTRIP
360
FEEC
  0
DICTIONARY
  5
FEED
330
F7B8
100
AcDbDictionary
280
     1
281
     1
  3
ACAD_XREC_ROUNDTRIP
360
FEEE
  0
DICTIONARY
  5
FF0A
330
F835
100
AcDbDictionary
280
     1
281
     1
  3
ACAD_XREC_ROUNDTRIP
360
FF0B
  0
DICTIONARY
  5
FF16
330
F83B
100
AcDbDictionary
280
     1
281
     1
  3
ACAD_XREC_ROUNDTRIP
360
FF17
  0
DICTIONARY
  5
FF01
330
F7C2
100
AcDbDictionary
280
     1
281
     1
  3
ACAD_XREC_ROUNDTRIP
360
FF02
  0
DICTIONARY
  5
FF18
330
F83C
100
AcDbDictionary
280
     1
281
     1
  3
ACAD_XREC_ROUNDTRIP
360
FF19
  0
DICTIONARY
  5
FEF9
330
F7BE
100
AcDbDictionary
280
     1
281
     1
  3
ACAD_XREC_ROUNDTRIP
360
FEFA
  0
DICTIONARY
  5
FF14
330
F83A
100
AcDbDictionary
280
     1
281
     1
  3
ACAD_XREC_ROUNDTRIP
360
FF15
  0
DICTIONARY
  5
FF12
330
F839
100
AcDbDictionary
280
     1
281
     1
  3
ACAD_XREC_ROUNDTRIP
360
FF13
  0
DICTIONARY
  5
FF0C
330
F836
100
AcDbDictionary
280
     1
281
     1
  3
ACAD_XREC_ROUNDTRIP
360
FF0D
  0
DICTIONARY
  5
FF0E
330
F837
100
AcDbDictionary
280
     1
281
     1
  3
ACAD_XREC_ROUNDTRIP
360
FF0F
  0
DICTIONARY
  5
FEFF
330
F7C1
100
AcDbDictionary
280
     1
281
     1
  3
ACAD_XREC_ROUNDTRIP
360
FF00
  0
DICTIONARY
  5
FF08
330
F834
100
AcDbDictionary
280
     1
281
     1
  3
ACAD_XREC_ROUNDTRIP
360
FF09
  0
DICTIONARY
  5
FF10
330
F838
100
AcDbDictionary
280
     1
281
     1
  3
ACAD_XREC_ROUNDTRIP
360
FF11
  0
XRECORD
  5
F8AF
102
{ACAD_REACTORS
330
F8AE
102
}
330
F8AE
100
AcDbXrecord
280
     1
310
280000000001000080000000010008000000000000800000000000000000000000010000000000003028210000000000FFFFFF000000000000000000000000000000000000000000000000000000000000000000330000006600000099000000CC000000FF00000000330000333300006633000099330000CC330000FF3300
310
0000660000336600006666000099660000CC660000FF66000000990000339900006699000099990000CC990000FF99000000CC000033CC000066CC000099CC0000CCCC0000FFCC000000FF000033FF000066FF000099FF0000CCFF0000FFFF000000003300330033006600330099003300CC003300FF003300003333003333
310
33006633330099333300CC333300FF33330000663300336633006666330099663300CC663300FF66330000993300339933006699330099993300CC993300FF99330000CC330033CC330066CC330099CC3300CCCC3300FFCC330000FF330033FF330066FF330099FF3300CCFF3300FFFF330000006600330066006600660099
310
006600CC006600FF00660000336600333366006633660099336600CC336600FF33660000666600336666006666660099666600CC666600FF66660000996600339966006699660099996600CC996600FF99660000CC660033CC660066CC660099CC6600CCCC6600FFCC660000FF660033FF660066FF660099FF6600CCFF6600
310
FFFF660000009900330099006600990099009900CC009900FF00990000339900333399006633990099339900CC339900FF33990000669900336699006666990099669900CC669900FF66990000999900339999006699990099999900CC999900FF99990000CC990033CC990066CC990099CC9900CCCC9900FFCC990000FF99
310
0033FF990066FF990099FF9900CCFF9900FFFF99000000CC003300CC006600CC009900CC00CC00CC00FF00CC000033CC003333CC006633CC009933CC00CC33CC00FF33CC000066CC003366CC006666CC009966CC00CC66CC00FF66CC000099CC003399CC006699CC009999CC00CC99CC00FF99CC0000CCCC0033CCCC0066CC
310
CC0099CCCC00CCCCCC00FFCCCC0000FFCC0033FFCC0066FFCC0099FFCC00CCFFCC00FFFFCC000000FF003300FF006600FF009900FF00CC00FF00FF00FF000033FF003333FF006633FF009933FF00CC33FF00FF33FF000066FF003366FF006666FF009966FF00CC66FF00FF66FF000099FF003399FF006699FF009999FF00CC
310
99FF00FF99FF0000CCFF0033CCFF0066CCFF0099CCFF00CCCCFF00FFCCFF0000FFFF0033FFFF0066FFFF0099FFFF00CCFFFF00FFFFFF00000000000D0D0D001A1A1A00282828003535350043434300505050005D5D5D006B6B6B00787878008686860093939300A1A1A100AEAEAE00BBBBBB00C9C9C900D6D6D600E4E4E400
310
F1F1F100FFFFFF000000000000000000000000000000000000000000000000000000000000000000000000000000000000000000000000000000000000000000000000000000000000000000000000000000000000000000000000000000000000000000000000000000000000000000000000000000000000000000000000
310
00000000000000000000000000000000000000000000000000000000000000000000000000000000000000000000000000000000000000000000000000000000000000000000000000000000000000000000000000000000000000000000000000000000000000000000000000000000000000000000000000000000000000
310
00000000000000000000000000000000000000000000000000000000000000000000000000000000000000000000000000000000000000000000000000000000000000000000000000000000000000000000000000000000000000000000000000000000000000000000000000000000000000000000000000000000000000
310
00000000000000000000000000000000000000000000000000000000000000000000000000000000000000000000000000000000000000000000000000000000000000000000000000000000000000000000000000000000000000000000000000000000000000000000000000000000000000000000000000000000000000
310
00000000000000000000000000000000000000000000000000000000000000000000000000000000000000000000000000000000000000000000000000000000000000000000000000000000000000000000000000000000000000000000000000000000000000000000000000000000000000000000000000000000000000
310
00000000000000000000000000000000000000000000000000000000000000000000000000000000000000000000000000000000000000000000000000000000000000000000000000000000000000000000000000000000000000000000000000000000000000000000000000000000000000000000000000000000000000
310
00000000000000000000000000000000000000000000000000000000000000000000000000000000000000000000000000000000000000000000000000000000000000000000000000000000000000000000000000000000000000000000000000000000000000000000000000000000000000000000000000000000000000
310
000000000000BEBEBEBEBEBEBE000000000000000000000000000000000000000000000000000000000000000000000000000000000000000000000000000000000000000000000000000000000000000000BEBEBEBEBEBEBE0000000000000000000000000000000000000000000000000000000000000000000000000000
310
00000000000000000000000000000000000000000000000000000000000000000000000000000000000000000000000000000000000000000000000000000000000000000000000000000000000000000000000000000000000000000000000000000000000000000000000000000000000000000000000000000000000000
310
0000000000000000BE000000000000000000000000000000000000000000000000000000000000000000000000000000000000000000000000000000000000000000000000000000000000000000000000000000000000000000BE000000000000000000000000000000000000000000000000000000000000000000000000
310
00000000000000000000000000000000000000000000000000000000000000000000000000000000000000000000000000000000000000000000000000000000000000000000000000000000000000000000000000000000000000000000000000000000000000000000000000000000000000000000000000000000000000
310
00000000000000000000BE000000000000000000000000000000000000000000000000000000000000000000000000000000000000000000000000000000000000000000000000000000000000000000000000000000000000000000BE00000000000000000000000000000000000000000000000000000000000000000000
310
00000000000000000000000000000000000000000000000000000000000000000000000000000000000000000000000000000000000000000000000000000000000000000000000000000000000000000000000000000000000000000000000000000000000000000000000000000000000000000000000000000000000000
310
000000000000000000000000BE00BEBEBEBEBEBEBEBEBEBEBEBEBEBEBEBEBEBEBEBEBEBEBEBEBEBEBEBEBEBEBEBEBEBEBEBEBEBEBEBEBEBEBEBEBEBEBEBEBEBEBEBEBEBEBEBEBEBEBEBEBEBEBEBEBEBEBEBEBEBEBEBEBEBEBEBEBEBEBE00BE0000000000000000000000000000000000000000000000000000000000000000
310
00000000000000000000000000000000000000000000000000000000000000000000000000000000000000000000000000000000000000000000000000000000000000000000000000000000000000000000000000000000000000000000000000000000000000000000000000000000000000000000000000000000000000
310
0000000000000000000000000000BE00BE000000000000000000000000000000F5F5F5F5F5F5F5F500000000000000000000000000000000000000F5F500F5F5F5F5F5F500000000F500F5F5F5000000F5F5F5F500F5F5F5F5F500000000BE00BE000000000000000000000000000000000000000000000000000000000000
310
00000000000000000000000000000000000000000000000000000000000000000000000000000000000000000000000000000000000000000000000000000000000000000000000000000000000000000000000000000000000000000000000000000000000000000000000000000000000000000000000000000000000000
310
00000000000000000000000000000000BE00BE000000000000000000000000000000F5F5F5F5F5F5F5F5F5F5F5F5F50000000000000000000000000000F5F500F5F5F5F5F5F500000000F500F5F5F5000000F5F5F5F500F50000000000000000BE00BE00000000000000000000000000000000000000000000000000000000
310
00000000000000000000000000000000000000000000000000000000000000000000000000000000000000000000000000000000000000000000000000000000000000000000000000000000000000000000000000000000000000000000000000000000000000000000000000000000000000000000000000000000000000
310
000000000000000000000000000000000000BE00BE000000000000000000000000000000F5F5F5F5F5F5F5F5F5F5F5F5F500000000000000000000000000F5F5F5F5F5F5F5F5F5F5F5F5F5F5F5F5F5F5F5F5F5F5F5F5F5F5F5F5F5F5F5F5F5F5F5F5BE00BE0000000000000000000000000000000000000000000000000000
310
00000000000000000000000000000000000000000000000000000000000000000000000000000000000000000000000000000000000000000000000000000000000000000000000000000000000000000000000000000000000000000000000000000000000000000000000000000000000000000000000000000000000000
310
00000000000000000000000000000000000000000000BE000000000000000000000000000000F5F5F5F5F5F5F5F5F5F5F5F5F5F5F5F5F5F5F50000000000000000F5F5F5F5F5F5F5F5F5F5F5F5F5F5F5F5F5000000000000000000000000000000000000BE0000000000000000000000000000000000000000000000000000
310
00000000000000000000000000000000000000000000000000000000000000000000000000000000000000000000000000000000000000000000000000000000000000000000000000000000000000000000000000000000000000000000000000000000000000000000000000000000000000000000000000000000000000
310
000000000000000000000000000000000000000000000000BE000000000000000000000000000000F5F5F5F5F5F5F5F5F5F5F5F5F5F5F5F5F5F5F500000000000000000000000000000000000000000000000000000000000000000028280000000000000000BE000000000000000000000000000000000000000000000000
310
00000000000000000000000000000000000000000000000000000000000000000000000000000000000000000000000000000000000000000000000000000000000000000000000000000000000000000000000000000000000000000000000000000000000000000000000000000000000000000000000000000000000000
310
0000000000000000000000000000000000000000000000000000BE000000000000000000000000000000F5F5F5F5F5F5F5F5F5F5F5F5F5F5F5F5F5F5F500000000000000000000000028282828282828282828282828282828282828282828282828282800000000BE00000000000000000000000000000000000000000000
310
00000000000000000000000000000000000000000000000000000000000000000000000000000000000000000000000000000000000000000000000000000000000000000000000000000000000000000000000000000000000000000000000000000000000000000000000000000000000000000000000000000000000000
310
00000000000000000000000000000000000000000000000000000000BE0000000000000000000000000000000000000000000000000000000000000000000000000000000000000000000000000000000000000000000000000000000000000000000000000000000000BE0000000000000000000000000000000000000000
310
00000000000000000000000000000000000000000000000000000000000000000000000000000000000000000000000000000000000000000000000000000000000000000000000000000000000000000000000000000000000000000000000000000000000000000000000000000000000000000000000000000000000000
310
000000000000000000000000000000000000000000000000000000000000BE0000000000000000000000000000000000000000000000000000000000000000000000000000000000000000000000000000000000000000000000000000000000000000000000000000000000BE000000000000000000000000000000000000
310
00000000000000000000000000000000000000000000000000000000000000000000000000000000000000000000000000000000000000000000000000000000000000000000000000000000000000000000000000000000000000000000000000000000000000000000000000000000000000000000000000000000000000
310
0000000000000000000000000000000000000000000000000000000000000000BE0000000000000000000000000000000000000000000000000000000000000000000000000000000000000000000000000000000000000000000000000000000000000000000000000000000000BE00000000000000000000000000000000
310
00000000000000000000000000000000000000000000000000000000000000000000000000000000000000000000000000000000000000000000000000000000000000000000000000000000000000000000000000000000000000000000000000000000000000000000000000000000000000000000000000000000000000
310
00000000000000000000000000000000000000000000000000000000000000000000BE0000000000000000000000000000000000000000000000000000000000000000000000000000000000000000000000000000000000000000000000000000000000000000000000000000000000BE0000000000000000000000000000
310
00000000000000000000000000000000000000000000000000000000000000000000000000000000000000000000000000000000000000000000000000000000000000000000000000000000000000000000000000000000000000000000000000000000000000000000000000000000000000000000000000000000000000
310
000000000000000000000000000000000000000000000000000000000000000000000000BE0000000000000000000000000000000000000000000000000000000000000000000000000000000000000000000000000000000000000000000000000000000000000000000000000000000000BE000000000000000000000000
310
00000000000000000000000000000000000000000000000000000000000000000000000000000000000000000000000000000000000000000000000000000000000000000000000000000000000000000000000000000000000000000000000000000000000000000000000000000000000000000000000000000000000000
310
0000000000000000000000000000000000000000000000000000000000000000000000000000BE0000000000000000000000000000000000000000000000000000000000000000000000000000000000000000000000000000000000000000000000000000000000000000000000000000000000BE00000000000000000000
310
00000000000000000000000000000000000000000000000000000000000000000000000000000000000000000000000000000000000000000000000000000000000000000000000000000000000000000000000000000000000000000000000000000000000000000000000000000000000000000000000000000000000000
310
00000000000000000000000000000000000000000000000000000000000000000000000000000000BE0000000000000000000000000000000000000000000000000000000000000000000000000000000000000000000000000000000000000000000000000000000000000000000000000000000000BE0000000000000000
310
00000000000000000000000000000000000000000000000000000000000000000000000000000000000000000000000000000000000000000000000000000000000000000000000000000000000000000000000000000000000000000000000000000000000000000000000000000000000000000000000000000000000000
310
000000000000000000000000000000000000000000000000000000000000000000000000000000000000BE0000000000000000000000000000000000000000000000000000000000000000000000000000000000000000000000000000000000000000000000000000000000000000000000000000000000BE000000000000
310
00000000000000000000000000000000000000000000000000000000000000000000000000000000000000000000000000000000000000000000000000000000000000000000000000000000000000000000000000000000000000000000000000000000000000000000000000000000000000000000000000000000000000
310
0000000000000000000000000000000000000000000000000000000000000000000000000000000000000000BE0000000000000000000000000000000000000000000000000000000000000000000000000000000000000000000000000000000000000000000000000000000000000000000000000000000000BE00000000
310
00000000000000000000000000000000000000000000000000000000000000000000000000000000000000000000000000000000000000000000000000000000000000000000000000000000000000000000000000000000000000000000000000000000000000000000000000000000000000000000000000000000000000
310
00000000000000000000000000000000000000000000000000000000000000000000000000000000000000000000BE0000000000000000000000000000000000000000000000000000000000000000000000000000000000000000000000000000000000000000000000000000000000000000000000000000000000BE0000
310
00000000000000000000000000000000000000000000000000000000000000000000000000000000000000000000000000000000000000000000000000000000000000000000000000000000000000000000000000000000000000000000000000000000000000000000000000000000000000000000000000000000000000
310
000000000000000000000000000000000000000000000000000000000000000000000000000000000000000000000000BE0000000000000000000000000000000000000000000000000000000000000000000000000000000000000000000000000000000000000000000000000000000000000000000000000000000000BE
310
00000000000000000000000000000000000000000000000000000000000000000000000000000000000000000000000000000000000000000000000000000000000000000000000000000000000000000000000000000000000000000000000000000000000000000000000000000000000000000000000000000000000000
310
0000000000000000000000000000000000000000000000000000000000000000000000000000000000000000000000000000BE00000000000000000000000000000000000000000000000000000000000000000000000000000000000000000000000000000000000000000000000000000000000000000000000000000000
310
00BE0000000000000000000000000000000000000000000000000000000000000000000000000000000000000000000000000000000000000000000000000000000000000000000000000000000000000000000000000000000000000000000000000000000000000000000000000000000000000000000000000000000000
310
00000000000000000000000000000000000000000000000000000000000000000000000000000000000000000000000000000000BE0000000000000000000000000000000000000000000000000000000000000000000000000000000000000000000000000000000000000000000000000000000000000000000000000000
310
000000BE000000000000000000000000000000000000000000000000000000000000000000000000000000000000000000000000000000000000000000000000000000000000000000000000000000000000000000000000000000000000000000000000000000000000000000000000000000000000000000000000000000
310
000000000000000000000000000000000000000000000000000000000000000000000000000000000000000000000000000000000000BE000000000000000000000000000000000000000000000000000000000000000000000000000000000000000000000000000000000000000000000000000000000000000000000000
310
0000000000BE00000000000000000000000000000000000000000000000000000000000000000000000000000000000000000000000000000000000000000000000000000000000000000000000000000000000000000000000000000000000000000000000000000000000000000000000000000000000000000000000000
310
0000000000000000000000000000000000000000000000000000000000000000000000000000000000000000000000000000000000000000BE00000000000000000000000000000000000000000000000000000000000000000000000000000000000000000000000000000000000000000000000000000000000000000000
310
00000000000000BE0000000000000000000000000000000000000000000000000000000000000000000000000000000000000000000000000000000000000000000000000000000000000000000000000000000000000000000000000000000000000000000000000000000000000000000000000000000000000000000000
310
00000000000000000000000000000000000000000000000000000000000000000000000000000000000000000000000000000000000000000000BE0000000000000000000000000000000000000000000000000000000000000000000000000000000000000000000000000000000000000000000000000000000000000000
310
000000000000000000BE000000000000000000000000000000000000000000000000000000000000000000000000000000000000000000000000000000000000000000000000000000000000000000000000000000000000000000000000000000000000000000000000000000000000000000000000000000000000000000
310
000000000000000000000000000000000000000000000000000000000000000000000000000000000000000000000000000000000000000000000000BE000000000000000000000000000000000000000000000000000000000000000000000000000000000000000000000000000000000000000000000000000000000000
310
0000000000000000000000BE00000000000000000000000000000000000000000000000000000000000000000000000000000000000000000000000000000000000000000000000000000000000000000000000000000000000000000000000000000000000000000000000000000000000000000000000000000000000000
310
0000000000000000000000000000000000000000000000000000000000000000000000000000000000000000000000000000000000000000000000000000BE00000000000000000000000000000000000000000000000000000000000000000000000000000000000000000000000000000000000000000000000000000000
310
00000000000000000000000000BE0000000000000000000000000000000000000000000000000000000000000000000000000000000000000000000000000000000000000000000000000000000000000000000000000000000000000000000000000000000000000000000000000000000000000000000000000000000000
310
00000000000000000000000000000000000000000000000000000000000000000000000000000000000000000000000000000000000000000000000000000000BE0000000000000000000000000000000000000000000000000000000000000000000000000000000000000000000000000000000000000000000000000000
310
000000000000000000000000000000BE000000000000000000000000000000000000000000000000000000000000000000000000000000000000000000000000000000000000000000000000000000000000000000000000000000000000000000000000000000000000000000000000000000000000000000000000000000
310
000000000000000000000000000000000000000000000000000000000000000000000000000000000000000000000000000000000000000000000000000000000000BE000000000000000000000000000000000000000000000000000000000000000000000000000000000000000000000000000000000000000000000000
310
0000000000000000000000000000000000BE00000000000000000000000000000000000000000000000000000000000000000000000000000000000000000000000000000000000000000000000000000000000000000000000000000000000000000000000000000000000000000000000000000000000000000000000000
310
0000000000000000000000000000000000000000000000000000000000000000000000000000000000000000000000000000000000000000000000000000000000000000BE00000000000000000000000000000000000000000000000000000000000000000000000000000000000000000000000000000000000000000000
310
00000000000000000000000000000000000000BE0000000000000000000000000000000000000000000000000000000000000000000000000000000000000000000000000000000000000000000000000000000000000000000000000000000000000000000000000000000000000000000000000000000000000000000000
310
00000000000000000000000000000000000000000000000000000000000000000000000000000000000000000000000000000000000000000000000000000000000000000000BE0000000000000000000000000000000000000000000000000000000000000000000000000000000000000000000000000000000000000000
310
000000000000000000000000000000000000000000BE000000000000000000000000000000000000000000000000000000000000000000000000000000000000000000000000000000000000000000000000000000000000000000000000000000000000000000000000000000000000000000000000000000000000000000
310
000000000000000000000000000000000000000000000000000000000000000000000000000000000000000000000000000000000000000000000000000000000000000000000000BE000000000000000000000000000000000000000000000000000000000000000000000000000000000000000000000000000000000000
310
0000000000000000000000000000000000000000000000BE00000000000000000000000000000000000000000000000000000000000000000000000000000000000000000000000000000000000000000000000000000000000000000000000000000000000000000000000000000000000000000000000000000000000000
310
0000000000000000000000000000000000000000000000000000000000000000000000000000000000000000000000000000000000000000000000000000000000000000000000000000BE00000000000000000000000000000000000000000000000000000000000000000000000000000000000000000000000000000000
310
00000000000000000000000000000000000000000000000000BE0000000000000000000000000000000000000000000000000000000000000000000000000000000000000000000000000000000000000000000000000000000000000000000000000000000000000000000000000000000000000000000000000000000000
310
00000000000000000000000000000000000000000000000000000000000000000000000000000000000000000000000000000000000000000000000000000000000000000000000000000000BE0000000000000000000000000000000000000000000000000000000000000000000000000000000000000000000000000000
310
000000000000000000000000000000000000000000000000000000BE000000000000000000000000000000000000000000000000000000000000000000000000000000000000000000000000000000000000000000000000000000000000000000000000000000000000000000000000000000000000000000000000000000
310
000000000000000000000000000000000000000000000000000000000000000000000000000000000000000000000000000000000000000000000000000000000000000000000000000000000000BE000000000000000000000000000000000000000000000000000000000000000000000000000000000000000000000000
310
0000000000000000000000000000000000000000000000000000000000BE00000000000000000000000000000000000000000000000000000000000000000000000000000000000000000000000000000000000000000000000000000000000000000000000000000000000000000000000000000000000000000000000000
310
0000000000000000000000000000000000000000000000000000000000000000000000000000000000000000000000000000000000000000000000000000000000000000000000000000000000000000BE000000000000000000000000000000BEBEBEBEBEBEBEBEBEBEBEBEBEBEBEBEBEBEBEBEBEBEBEBEBEBEBEBEBEBEBE
310
BEBEBEBEBEBE00000000000000000000000000000000000000000000000000BE0000000000000000000000000000000000000000000000000000000000000000000000000000000000000000000000000000000000000000000000000000000000000000000000000000000000000000000000000000000000000000000000
310
00000000000000000000000000000000000000000000000000000000000000000000000000000000000000000000000000000000000000000000000000000000000000000000000000000000000000000000BE000000000000000000000000000000BEBEBEBEBEBEBEBEBEBEBEBEBEBEBEBEBEBEBEBEBEBEBEBEBEBEBEBEBE
310
BEBEBE000000000000000000000000000000000000000000000000000000000000BE000000000000000000000000000000000000000000000000000000000000000000000000000000000000000000000000000000000000000000000000000000000000000000000000000000000000000000000000000000000000000000
310
000000000000000000000000000000000000000000000000000000000000000000000000000000000000000000000000000000000000000000000000000000000000000000000000000000000000000000000000BE000000000000000000000000000000BEBEBEBEBEBEBEBEBEBEBEBEBEBEBEBEBEBEBEBEBEBEBEBEBEBEBE
310
BEBEBEBEBE000000000000000000000000000000000000000000000000000000000000BE00000000000000000000000000000000000000000000000000000000000000000000000000000000000000000000000000000000000000000000000000000000000000000000000000000000000000000000000000000000000000
310
0000000000000000000000000000000000000000000000000000000000000000000000000000000000000000000000000000000000000000000000000000000000000000000000000000000000000000000000000000BE000000000000000000000000000000BEBEBEBEBEBEBEBEBEBEBEBEBEBEBEBEBEBEBEBEBEBE000000
310
00000000000000000000000000000000000000000000000000000000000000000000000000BE0000000000000000000000000000000000000000000000000000000000000000000000000000000000000000000000000000000000000000000000000000000000000000000000000000000000000000000000000000000000
310
00000000000000000000000000000000000000000000000000000000000000000000000000000000000000000000000000000000000000000000000000000000000000000000000000000000000000000000000000000000BE000000000000000000000000000000BEBEBEBEBEBEBEBEBEBEBEBEBEBEBEBEBEBEBEBEBEBE00
310
000000000000000000000000000000000000000000000000000000000000000000000000000000BE000000000000000000000000000000000000000000000000000000000000000000000000000000000000000000000000000000000000000000000000000000000000000000000000000000000000000000000000000000
310
000000000000000000000000000000000000000000000000000000000000000000000000000000000000000000000000000000000000000000000000000000000000000000000000000000000000000000000000000000000000BE000000000000000000000000000000BEBEBEBEBEBEBEBEBEBEBEBEBEBEBEBEBEBEBEBEBE
310
BE00000000000000000000000000000000000000000000000000000000000000000000000000000000BE00000000000000000000000000000000000000000000000000000000000000000000000000000000000000000000000000000000000000000000000000000000000000000000000000000000000000000000000000
310
0000000000000000000000000000000000000000000000000000000000000000000000000000000000000000000000000000000000000000000000000000000000000000000000000000000000000000000000000000000000000000BE000000000000000000000000000000BEBEBEBEBEBEBEBEBEBEBEBEBEBEBEBEBEBEBE
310
BEBEBEBEBEBEBEBEBE00000000000000000000000000000000000000000000000000000000000000000000BE0000000000000000000000000000000000000000000000000000000000000000000000000000000000000000000000000000000000000000000000000000000000000000000000000000000000000000000000
310
00000000000000000000000000000000000000000000000000000000000000000000000000000000000000000000000000000000000000000000000000000000000000000000000000000000000000000000000000000000000000000000BE000000000000000000000000000000BEBEBEBEBEBEBEBEBEBEBEBEBEBEBEBEBE
310
BEBEBEBEBEBEBEBEBEBEBE00000000000000000000000000000000000000000000000000000000000000000000BE000000000000000000000000000000000000000000000000000000000000000000000000000000000000000000000000000000000000000000000000000000000000000000000000000000000000000000
310
000000000000000000000000000000000000000000000000000000000000000000000000000000000000000000000000000000000000000000000000000000000000000000000000000000000000000000000000000000000000000000000000BE000000000000000000000000000000BEBEBEBEBEBE000000000000000000
310
0000000000000000000000000000000000000000000000000000000000000000000000000000000000000000000000BE00000000000000000000000000000000000000000000000000000000000000000000000000000000000000000000000000000000000000000000000000000000000000000000000000000000000000
310
0000000000000000000000000000000000000000000000000000000000000000000000000000000000000000000000000000000000000000000000000000000000000000000000000000000000000000000000000000000000000000000000000000BE000000000000000000000000000000BEBEBEBEBEBE00000000000000
310
00000000000000000000000000000000000000000000000000000000000000000000000000000000000000000000000000BE0000000000000000000000000000000000000000000000000000000000000000000000000000000000000000000000000000000000000000000000000000000000000000000000000000000000
310
00000000000000000000000000000000000000000000000000000000000000000000000000000000000000000000000000000000000000000000000000000000000000000000000000000000000000000000000000000000000000000000000000000000BE0000000000000000000000000000000000000000000000000000
310
000000000000000000000000000000000000000000000000000000000000000000000000000000000000000000000000000000BE000000000000000000000000000000000000000000000000000000000000000000000000000000000000000000000000000000000000000000000000000000000000000000000000000000
310
000000000000000000000000000000000000000000000000000000000000000000000000000000000000000000000000000000000000000000000000000000000000000000000000000000000000000000000000000000000000000000000000000000000000BE000000000000000000000000000000BEBEBEBEBEBEBEBEBE
310
BEBEBEBEBEBEBEBEBEBEBEBEBEBEBEBEBEBE0000000000000000000000000000000000000000000000000000000000000000000000BE00000000000000000000000000000000000000000000000000000000000000000000000000000000000000000000000000000000000000000000000000000000000000000000000000
310
0000000000000000000000000000000000000000000000000000000000000000000000000000000000000000000000000000000000000000000000000000000000000000000000000000000000000000000000000000000000000000000000000000000000000000BE000000000000000000000000000000BEBEBEBEBEBEBE
310
BEBEBEBEBEBEBEBEBEBEBEBEBEBEBEBEBEBEBEBE0000000000000000000000000000000000000000000000000000000000000000000000BE0000000000000000000000000000000000000000000000000000000000000000000000000000000000000000000000000000000000000000000000000000000000000000000000
310
00000000000000000000000000000000000000000000000000000000000000000000000000000000000000000000000000000000000000000000000000000000000000000000000000000000000000000000000000000000000000000000000000000000000000000000BE000000000000000000000000000000BEBEBEBEBE
310
BEBEBEBEBEBEBEBEBEBEBEBEBEBEBEBEBEBEBEBEBEBEBEBEBEBEBEBEBEBEBEBEBEBEBEBE000000000000000000000000000000000000000000BE000000000000000000000000000000000000000000000000000000000000000000000000000000000000000000000000000000000000000000000000000000000000000000
310
000000000000000000000000000000000000000000000000000000000000000000000000000000000000000000000000000000000000000000000000000000000000000000000000000000000000000000000000000000000000000000000000000000000000000000000000BE000000000000000000000000000000000000
310
0000000000000000000000000000000000BEBE00000000000000000000000000000000000000000000000000000000000000000000000000000000BE00000000000000000000000000000000000000000000000000000000000000000000000000000000000000000000000000000000000000000000000000000000000000
310
0000000000000000000000000000000000000000000000000000000000000000000000000000000000000000000000000000000000000000000000000000000000000000000000000000000000000000000000000000000000000000000000000000000000000000000000000000BE000000000000000000000000000000BE
310
BEBEBEBEBEBEBEBEBEBEBEBEBEBEBEBEBEBEBEBEBEBEBEBEBEBEBEBEBEBEBEBEBEBEBEBEBEBEBEBEBEBEBEBEBEBEBEBEBEBEBEBEBEBEBEBE0000000000BE0000000000000000000000000000000000000000000000000000000000000000000000000000000000000000000000000000000000000000000000000000000000
310
00000000000000000000000000000000000000000000000000000000000000000000000000000000000000000000000000000000000000000000000000000000000000000000000000000000000000000000000000000000000000000000000000000000000000000000000000000000BE0000000000000000000000000000
310
00BEBEBEBEBEBEBEBEBEBEBEBEBEBEBEBEBEBEBEBEBEBEBEBEBEBEBEBEBEBEBEBEBEBEBEBEBEBE000000000000000000000000000000000000000000000000BE000000000000000000000000000000000000000000000000000000000000000000000000000000000000000000000000000000000000000000000000000000
310
000000000000000000000000000000000000000000000000000000000000000000000000000000000000000000000000000000000000000000000000000000000000000000000000000000000000000000000000000000000000000000000000000000000000000000000000000000000000BE000000000000000000000000
310
000000BEBEBEBEBEBEBEBEBEBEBEBEBEBEBEBEBEBEBEBEBEBEBEBEBEBEBEBEBEBEBEBEBEBEBEBEBEBE000000000000000000000000000000000000000000000000BE00000000000000000000000000000000000000000000000000000000000000000000000000000000000000000000000000000000000000000000000000
310
0000000000000000000000000000000000000000000000000000000000000000000000000000000000000000000000000000000000000000000000000000000000000000000000000000000000000000000000000000000000000000000000000000000000000000000000000000000000000000BE00000000000000000000
310
0000000000BEBEBEBEBE000000000000000000000000000000000000000000000000000000000000000000000000000000000000000000000000000000000000000000BE0000000000000000000000000000000000000000000000000000000000000000000000000000000000000000000000000000000000000000000000
310
00000000000000000000000000000000000000000000000000000000000000000000000000000000000000000000000000000000000000000000000000000000000000000000000000000000000000000000000000000000000000000000000000000000000000000000000000000000000000000000BE0000000000000000
310
000000000000000000000000000000000000000000000000000000000000000000000000000000000000000000000000000000000000000000000000000000000000000000BE000000000000000000000000000000000000000000000000000000000000000000000000000000000000000000000000000000000000000000
310
000000000000000000000000000000000000000000000000000000000000000000000000000000000000000000000000000000000000000000000000000000000000000000000000000000000000000000000000000000000000000000000000000000000000000000000000000000000000000000000000BE000000000000
310
0000000000000000000000000000000000000000000000000000000000000000000000000000000000000000000000000000000000000000000000000000000000000000000000BE00000000000000000000000000000000000000000000000000000000000000000000000000000000000000000000000000000000000000
310
0000000000000000000000000000000000000000000000000000000000000000000000000000000000000000000000000000000000000000000000000000000000000000000000000000000000000000000000000000000000000000000000000000000000000000000000000000000000000000000000000000BE00000000
310
00000000000000000000000000000000000000000000000000000000000000000000000000000000000000000000000000000000000000000000000000000000000000000000000000BE0000000000000000000000000000000000000000000000000000000000000000000000000000000000000000000000000000000000
310
00000000000000000000000000000000000000000000000000000000000000000000000000000000000000000000000000000000000000000000000000000000000000000000000000000000000000000000000000000000000000000000000000000000000000000000000000000000000000000000000000000000BE0000
310
000000000000000000000000000000000000000000000000000000000000000000000000000000000000000000000000000000000000000000000000000000000000000000000000000000BE000000000000000000000000000000000000000000000000000000000000000000000000000000000000000000000000000000
310
000000000000000000000000000000000000000000000000000000000000000000000000000000000000000000000000000000000000000000000000000000000000000000000000000000000000000000000000000000000000000000000000000000000000000000000000000000000000000000000000000000000000BE
310
0000000000000000000000000000000000000000000000000000000000000000000000000000000000000000000000000000000000000000000000000000000000000000000000000000000000BE00000000000000000000000000000000000000000000000000000000000000000000000000000000000000000000000000
310
00000000000000000000000000000000000000000000000000000000000000000000000000000000000000000000000000000000000000000000000000000000000000000000000000000000000000000000000000000000000000000000000000000000000000000000000000000000000000000000000000000000000000
310
00BE000000000000000000000000000000000000000000000000000000000000000000000000000000000000000000000000000000000000000000000000BEBEBEBEBEBEBEBEBEBE00000000000000BE0000000000000000000000000000000000000000000000000000000000000000000000000000000000000000000000
310
00000000000000000000000000000000000000000000000000000000000000000000000000000000000000000000000000000000000000000000000000000000000000000000000000000000000000000000000000000000000000000000000000000000000000000000000000000000000000000000000000000000000000
310
000000BE000000000000000000000000000000000000000000000000000000000000000000000000000000000000000000000000000000000000000000000000BEBEBEBEBEBEBEBEBEBE00000000000000BE000000000000000000000000000000000000000000000000000000000000000000000000000000000000000000
310
00000000000000000000000000000000000000000000000000000000000000000000000000000000000000000000000000000000000000000000000000000000000000000000000000000000000000000000000000000000000000000000000000000000000000000000000000000000000000000000000000000000000000
310
0000000000BE000000000000000000000000000000000000000000000000000000000000000000000000000000000000000000000000000000000000000000000000BEBEBEBEBEBEBE00000000000000000000BE00000000000000000000000000000000000000000000000000000000000000000000000000000000000000
310
00000000000000000000000000000000000000000000000000000000000000000000000000000000000000000000000000000000000000000000000000000000000000000000000000000000000000000000000000000000000000000000000000000000000000000000000000000000000000000000000000000000000000
310
00000000000000BE00000000000000000000000000000000000000000000000000000000000000000000000000000000000000000000000000000000000000ECECECECECBEBEBEBEBEBE0000000000000000000000BE0000000000000000000000000000000000000000000000000000000000000000000000000000000000
310
00000000000000000000000000000000000000000000000000000000000000000000000000000000000000000000000000000000000000000000000000000000000000000000000000000000000000000000000000000000000000000000000000000000000000000000000000000000000000000000000000000000000000
310
000000000000000000BE00000000000000000000000000000000000000000000000000000000000000000000000000000000000000000000000000000000000000EC00000000BEBEBEBEBEBE0000000000000000000000BE000000000000000000000000000000000000000000000000000000000000000000000000000000
310
00000000000000000000000000000000000000000000000000000000000000000000000000000000000000000000000000000000000000000000000000000000000000000000000000000000000000000000000000000000000000000000000000000000000000000000000000000000000000000000000000000000000000
310
0000000000000000000000BE000000000000000000000000000000000000000000000000000000000000000000000000000000000000000000000000000000000000EC00ECECECEC0000000000000000000000000000000000BE00000000000000000000000000000000000000000000000000000000000000000000000000
310
00000000000000000000000000000000000000000000000000000000000000000000000000000000000000000000000000000000000000000000000000000000000000000000000000000000000000000000000000000000000000000000000000000000000000000000000000000000000000000000000000000000000000
310
00000000000000000000000000BE000000000000000000000000000000000000000000000000000000000000000000000000000000000000000000000000000000000000EC00EC000000BEBEBEBEBEBEBE00000000000000000000BE0000000000000000000000000000000000000000000000000000000000000000000000
310
00000000000000000000000000000000000000000000000000000000000000000000000000000000000000000000000000000000000000000000000000000000000000000000000000000000000000000000000000000000000000000000000000000000000000000000000000000000000000000000000000000000000000
310
000000000000000000000000000000BE0000000000000000000000000000000000000000000000000000000000000000000000000000ECECECEC88CACACACA880000EC880000ECEC00000000BEBEBEBEBEBEBEBE000000000000000000BE000000000000000000000000000000000000000000000000000000000000000000
310
00000000000000000000000000000000000000000000000000000000000000000000000000000000000000000000000000000000000000000000000000000000000000000000000000000000000000000000000000000000000000000000000000000000000000000000000000000000000000000000000000000000000000
310
0000000000000000000000000000000000BE0000000000000000000000000000000000000000000000000000000000000000000000000000ECECECECEC00000000880000008800EC00ECECECECECBEBEBEBEBEBEBEBEBEBE00000000000000BE00000000000000000000000000000000000000000000000000000000000000
310
00000000000000000000000000000000000000000000000000000000000000000000000000000000000000000000000000000000000000000000000000000000000000000000000000000000000000000000000000000000000000000000000000000000000000000000000000000000000000000000000000000000000000
310
00000000000000000000000000000000000000BE0000000000000000000000000000000000000000000000000000000000000000000000000000ECECECECECCACACACA88CAECEC8800EC00EC00000000BEBEBEBE00000000000000000000000000BE0000000000000000000000000000000000000000000000000000000000
310
00000000000000000000000000000000000000000000000000000000000000000000000000000000000000000000000000000000000000000000000000000000000000000000000000000000000000000000000000000000000000000000000000000000000000000000000000000000000000000000000000000000000000
310
000000000000000000000000000000000000000000BE0000000000000000000000000000000000000000000000000000000000000000000000000000ECECECECCACA00000088EC00008800ECEC000000ECEC0000000000000000000000000000000000BE000000000000000000000000000000000000000000000000000000
310
00000000000000000000000000000000000000000000000000000000000000000000000000000000000000000000000000000000000000000000000000000000000000000000000000000000000000000000000000000000000000000000000000000000000000000000000000000000000000000000000000000000000000
310
0000000000000000000000000000000000000000000000BE0000000000000000000000000000000000000000000000000000000000000000000000000000ECECECECECCACACACA88ECEC0088EC00EC000000EC000000000000000000000000000000000000BE00000000000000000000000000000000000000000000000000
310
00000000000000000000000000000000000000000000000000000000000000000000000000000000000000000000000000000000000000000000000000000000000000000000000000000000000000000000000000000000000000000000000000000000000000000000000000000000000000000000000000000000000000
310
00000000000000000000000000000000000000000000000000BE0000000000000000000000000000000000000000000000000000000000000000000000000000ECECECECEC00000000880000EC88ECECEC0000EC00000000000000000000000000000000000000BE0000000000000000000000000000000000000000000000
310
00000000000000000000000000000000000000000000000000000000000000000000000000000000000000000000000000000000000000000000000000000000000000000000000000000000000000000000000000000000000000000000000000000000000000000000000000000000000000000000000000000000000000
310
000000000000000000000000000000000000000000000000000000BE00000000000000000000000000BEBEBEBE00ECECECECECECECECECECECECECECECECECECECECECECECECECECECECECECECECEC88ECECECBEBEECBEBEBEBEBEBEBEBEBEBEBE0000000000000000BE000000000000000000000000000000000000000000
310
00000000000000000000000000000000000000000000000000000000000000000000000000000000000000000000000000000000000000000000000000000000000000000000000000000000000000000000000000000000000000000000000000000000000000000000000000000000000000000000000000000000000000
310
0000000000000000000000000000000000000000000000000000000000BE00000000000000000000000000BEBEBEBEBEBEBEBEBEBEBEBEBEBEBEBEBE0000000000000000ECECECECCACA00000088ECECEC8828ECCACACAECCACACACACACACACACACACA0000000000000000BE00000000000000000000000000000000000000
310
00000000000000000000000000000000000000000000000000000000000000000000000000000000000000000000000000000000000000000000000000000000000000000000000000000000000000000000000000000000000000000000000000000000000000000000000000000000000000000000000000000000000000
310
00000000000000000000000000000000000000000000000000000000000000BE000000000000000000000000000000000000000000000000000000000000ECECECECEC000000ECECECECECCACACACA88000000ECECECCACAECECCACACACACACACACACACA000000000000000000BE0000000000000000000000000000000000
310
00000000000000000000000000000000000000000000000000000000000000000000000000000000000000000000000000000000000000000000000000000000000000000000000000000000000000000000000000000000000000000000000000000000000000000000000000000000000000000000000000000000000000
310
000000000000000000000000000000000000000000000000000000000000000000BE00000000000000000000000000BEBEBEBEBEBE00ECECECECECECEC0000000000000000EC0000ECECECECECCACA000088ECEC00ECCAC3C3C3ECC3C3C3C3C3C3C3C3C3C3C3C30000000000000000BE000000000000000000000000000000
310
00000000000000000000000000000000000000000000000000000000000000000000000000000000000000000000000000000000000000000000000000000000000000000000000000000000000000000000000000000000000000000000000000000000000000000000000000000000000000000000000000000000000000
310
0000000000000000000000000000000000000000000000000000000000000000000000BE000000000000000000000000000000000000000000000000000000EC00000000000000EC0000ECECECECECCACACACA88CACAECECCA00ECECEC00CACA00CACA00CACA00CA000000000000000000BE00000000000000000000000000
310
00000000000000000000000000000000000000000000000000000000000000000000000000000000000000000000000000000000000000000000000000000000000000000000000000000000000000000000000000000000000000000000000000000000000000000000000000000000000000000000000000000000000000
310
00000000000000000000000000000000000000000000000000000000000000000000000000BE0000000000000000000000000000000000000000000000000000ECECCACACACACACACACAECCACAECECECCACA0000008800ECEC88ECECECECEC00CACA00CACA00CACA00CA000000000000000000BE0000000000000000000000
310
00000000000000000000000000000000000000000000000000000000000000000000000000000000000000000000000000000000000000000000000000000000000000000000000000000000000000000000000000000000000000000000000000000000000000000000000000000000000000000000000000000000000000
310
000000000000000000000000000000000000000000000000000000000000000000000000000000BE0000000000000000000000000000000000000000000000000000ECECECCACACACACACACAECECCAECECECECCACACACA88EC0000ECECEC28ECCA00CACA00CACA00CACA00CACA0000000000000000BE000000000000000000
310
00000000000000000000000000000000000000000000000000000000000000000000000000000000000000000000000000000000000000000000000000000000000000000000000000000000000000000000000000000000000000000000000000000000000000000000000000000000000000000000000000000000000000
310
0000000000000000000000000000000000000000000000000000000000000000000000000000000000BE0000000000000000000000000000000000000000000000000000EC28EC00000000000000ECECECECECECECCACACACA88ECEC0088CAECECCACACACACACACACACACACACACACA0000000000000000BE00000000000000
310
00000000000000000000000000000000000000000000000000000000000000000000000000000000000000000000000000000000000000000000000000000000000000000000000000000000000000000000000000000000000000000000000000000000000000000000000000000000000000000000000000000000000000
310
00000000000000000000000000000000000000000000000000000000000000000000000000000000000000BE00000000000000000000000000BEBEBEBEBEECECECECECECECECECECEC00000000000000ECECECECECECCACA000000880000EC88CAECECCACA00CACA00CACA00CACA00CA000000000000000000BE0000000000
310
00000000000000000000000000000000000000000000000000000000000000000000000000000000000000000000000000000000000000000000000000000000000000000000000000000000000000000000000000000000000000000000000000000000000000000000000000000000000000000000000000000000000000
310
000000000000000000000000000000000000000000000000000000000000000000000000000000000000000000BE000000000000000000000000000000000000000000000000ECECECEC0000000000000000ECECECECECECECCACACACA8800ECEC88CAECECCACA00CACA00CACA00CACA00CA000000000000000000BE000000
310
00000000000000000000000000000000000000000000000000000000000000000000000000000000000000000000000000000000000000000000000000000000000000000000000000000000000000000000000000000000000000000000000000000000000000000000000000000000000000000000000000000000000000
310
0000000000000000000000000000000000000000000000000000000000000000000000000000000000000000000000BE00000000000000000000000000000000000000000000000000ECECEC0000000000000000ECECECCACACAEC0000000088888888CACA00CACACACACACACACACACACACACACACA0000000000000000BE00
310
00000000000000000000000000000000000000000000000000000000000000000000000000000000000000000000000000000000000000000000000000000000000000000000000000000000000000000000000000000000000000000000000000000000000000000000000000000000000000000000000000000000000000
310
00000000000000000000000000000000000000000000000000000000000000000000000000000000000000000000000000BE00000000000000000000000000000000000000000000000000ECCACACACACACACACACACAECECCACACACACACACACACACACACACACACACACACACACACACACACAECECCACACACACA0000000000000000
310
BE000000000000000000000000000000000000000000000000000000000000000000000000000000000000000000000000000000000000000000000000000000000000000000000000000000000000000000000000000000000000000000000000000000000000000000000000000000000000000000000000000000000000
310
000000000000000000000000000000000000000000000000000000000000000000000000000000000000000000000000000000BE00000000000000000000000000000000000000000000000000ECEC00000000000000EC000000CACAECCACA00000000000000000000000000000000000000EC000000000000000000000000
310
0000BE00000000000000000000000000000000000000000000000000000000000000000000000000000000000000000000000000000000000000000000000000000000000000000000000000000000000000000000000000000000000000000000000000000000000000000000000000000000000000000000000000000000
310
0000000000000000000000000000000000000000000000000000000000000000000000000000000000000000000000000000000000BE0000000000000000000000000000000000000000000000008282828282ECCA82828282EC828282CAECCACA82828282828282828282828282828282828282828282CA82828200000000
310
00000000BE0000000000000000000000000000000000000000000000000000000000000000000000000000000000000000000000000000000000000000000000000000000000000000000000000000000000000000000000000000000000000000000000000000000000000000000000000000000000000000000000000000
310
00000000000000000000000000000000000000000000000000000000000000000000000000000000000000000000000000000000000000BE000000000000000000000000000000000000BEBEBEBEBEEC828200EC0082828200EC0082828200EC8282CA82008282828282008282828282008282828282008282828282000000
310
000000000000BE000000000000000000000000000000000000000000000000000000000000000000000000000000000000000000000000000000000000000000000000000000000000000000000000000000000000000000000000000000000000000000000000000000000000000000000000000000000000000000000000
310
000000000000000000000000000000000000000000000000000000000000000000000000000000000000000000000000000000000000000000BE000000000000000000000000000000000000000000000000ECECEC000000000000EC0000000000EC0000EC000000000000000000000000000000000000EC00000000000000
310
0000000000000000BE00000000000000000000000000000000000000000000000000000000000000000000000000000000000000000000000000000000000000000000000000000000000000000000000000000000000000000000000000000000000000000000000000000000000000000000000000000000000000000000
310
0000000000000000000000000000000000000000000000000000000000000000000000000000000000000000000000000000000000000000000000BE00000000000000000000000000BEBEBEBEBEBE00000000000000EC000000000000EC00000000EC0000EC000000000000000000000000000000000000EC000000000000
310
00000000000000000000BE0000000000000000000000000000000000000000000000000000000000000000000000000000000000000000000000000000000000000000000000000000000000000000000000000000000000000000000000000000000000000000000000000000000000000000000000000000000000000000
310
00000000000000000000000000000000000000000000000000000000000000000000000000000000000000000000000000000000000000000000000000BE00000000000000000000000000BEBEBEBEBEBE000000000000EC000000000000EC0000000000EC0000EC000000000000000000000000000000000000EC00000000
310
000000000000000000000000BE000000000000000000000000000000000000000000000000000000000000000000000000000000000000000000000000000000000000000000000000000000000000000000000000000000000000000000000000000000000000000000000000000000000000000000000000000000000000
310
000000000000000000000000000000000000000000000000000000000000000000000000000000000000000000000000000000000000000000000000000000BE00000000000000000000000000BEBEBEBEBEBE00ECECECECECEC000000000000EC00000000EC000000EC000000000000000000000000000000000000EC0000
310
0000000000000000000000000000BE00000000000000000000000000000000000000000000000000000000000000000000000000000000000000000000000000000000000000000000000000000000000000000000000000000000000000000000000000000000000000000000000000000000000000000000000000000000
310
0000000000000000000000000000000000000000000000000000000000000000000000000000000000000000000000000000000000000000000000000000000000BE00000000000000000000000000BEBEBEBEBEBEBEBEBE000000000000000000EC0000000000EC0000EC0000BEBEBEBEBEBEBEBEBEBEBEBEBE000000EC00
310
00000000000000000000000000000000BE0000000000000000000000000000000000000000000000000000000000000000000000000000000000000000000000000000000000000000000000000000000000000000000000000000000000000000000000000000000000000000000000000000000000000000000000000000
310
00000000000000000000000000000000000000000000000000000000000000000000000000000000000000000000000000000000000000000000000000000000000000BE00000000000000000000000000000000000000000000ECECECECECECECECECEC00000000EC000000EC00000000000000000000000000000000ECEC
310
EC0000000000000000000000000000000000BE000000000000000000000000000000000000000000000000000000000000000000000000000000000000000000000000000000000000000000000000000000000000000000000000000000000000000000000000000000000000000000000000000000000000000000000000
310
000000000000000000000000000000000000000000000000000000000000000000000000000000000000000000000000000000000000000000000000000000000000000000BE00000000000000000000000000BEBEBEBEBEBEBEBEBEECECECECECECECECECECECECECECEC000000EC00000000000000000000000000000000
310
0000000000000000000000000000000000000000BE00000000000000000000000000000000000000000000000000000000000000000000000000000000000000000000000000000000000000000000000000000000000000000000000000000000000000000000000000000000000000000000000000000000000000000000
310
0000000000000000000000000000000000000000000000000000000000000000000000000000000000000000000000000000000000000000000000000000000000000000000000BE000000000000000000000000000000000000000000000000000000000000000000000000000000EC000000000000000000000000000000
310
00000000000000000000000000000000000000000000BE0000000000000000000000000000000000000000000000000000000000000000000000000000000000000000000000000000000000000000000000000000000000000000000000000000000000000000000000000000000000000000000000000000000000000000
310
00000000000000000000000000000000000000000000000000000000000000000000000000000000000000000000000000000000000000000000000000000000000000000000000000BE00000000000000000000000000BEBEBEBEBEBEBEBEBE00ECECECECECECECECECECECECECECECECEC00000000000000000000000000
310
000000000000000000000000000000000000000000000000BE000000000000000000000000000000000000000000000000000000000000000000000000000000000000000000000000000000000000000000000000000000000000000000000000000000000000000000000000000000000000000000000000000000000000
310
000000000000000000000000000000000000000000000000000000000000000000000000000000000000000000000000000000000000000000000000000000000000000000000000000000BE000000000000000000000000000000000000000000000000000000000000000000000000000000000000000000000000000000
310
0000000000000000000000000000000000000000000000000000BE00000000000000000000000000000000000000000000000000000000000000000000000000000000000000000000000000000000000000000000000000000000000000000000000000000000000000000000000000000000000000000000000000000000
310
0000000000000000000000000000000000000000000000000000000000000000000000000000000000000000000000000000000000000000000000000000000000000000000000000000000000BE00000000000000000000000000000000000000000000000000000000000000000000000000000000000000000000000000
310
00000000000000000000000000000000000000000000000000000000BE0000000000000000000000000000000000000000000000000000000000000000000000000000000000000000000000000000000000000000000000000000000000000000000000000000000000000000000000000000000000000000000000000000
310
00000000000000000000000000000000000000000000000000000000000000000000000000000000000000000000000000000000000000000000000000000000000000000000000000000000000000BE0000000000000000000000000000000000000000000000000000000000000000000000000000000000000000000000
310
000000000000000000000000000000000000000000000000000000000000BE000000000000000000000000000000000000000000000000000000000000000000000000000000000000000000000000000000000000000000000000000000000000000000000000000000000000000000000000000000000000000000000000
310
000000000000000000000000000000000000000000000000000000000000000000000000000000000000000000000000000000000000000000000000000000000000000000000000000000000000000000BE000000000000000000000000000000000000000000000000000000000000000000000000000000000000000000
310
0000000000000000000000000000000000000000000000000000000000000000BE00000000000000000000000000000000000000000000000000000000000000000000000000000000000000000000000000000000000000000000000000000000000000000000000000000000000000000000000000000000000000000000
310
0000000000000000000000000000000000000000000000000000000000000000000000000000000000000000000000000000000000000000000000000000000000000000000000000000000000000000000000BE00000000000000000000000000000000000000000000000000000000000000000000000000000000000000
310
00000000000000000000000000000000000000000000000000000000000000000000BE0000000000000000000000000000000000000000000000000000000000000000000000000000000000000000000000000000000000000000000000000000000000000000000000000000000000000000000000000000000000000000
310
00000000000000000000000000000000000000000000000000000000000000000000000000000000000000000000000000000000000000000000000000000000000000000000000000000000000000000000000000BE0000000000000000000000000000000000000000000000000000000000000000000000000000000000
310
000000000000000000000000000000000000000000000000000000000000000000000000BE000000000000000000000000000000000000000000000000000000000000000000000000000000000000000000000000000000000000000000000000000000000000000000000000000000000000000000000000000000000000
310
000000000000000000000000000000000000000000000000000000000000000000000000000000000000000000000000000000000000000000000000000000000000000000000000000000000000000000000000000000BE000000000000000000000000000000000000000000000000000000000000000000000000000000
310
0000000000000000000000000000000000000000000000000000000000000000000000000000BE00000000000000000000000000000000000000000000000000000000000000000000000000000000000000000000000000000000000000000000000000000000000000000000000000000000000000000000000000000000
310
0000000000000000000000000000000000000000000000000000000000000000000000000000000000000000000000000000000000000000000000000000000000000000000000000000000000000000000000000000000000BE00000000000000000000000000000000000000000000000000000000000000000000000000
310
00000000000000000000000000000000000000000000000000000000000000000000000000000000BE0000000000000000000000000000000000000000000000000000000000000000000000000000000000000000000000000000000000000000000000000000000000000000000000000000000000000000000000000000
310
00000000000000000000000000000000000000000000000000000000000000000000000000000000000000000000000000000000000000000000000000000000000000000000000000000000000000000000000000000000000000BE0000000000000000000000000000000000000000000000000000000000000000000000
310
000000000000000000000000000000000000000000000000000000000000000000000000000000000000BE000000000000000000000000000000000000000000000000000000000000000000000000000000000000000000000000000000000000000000000000000000000000000000000000000000000000000000000000
310
000000000000000000000000000000000000000000000000000000000000000000000000000000000000000000000000000000000000000000000000000000000000000000000000000000000000000000000000000000000000000000BE000000000000000000000000000000000000000000000000000000000000000000
310
0000000000000000000000000000000000000000000000000000000000000000000000000000000000000000BE00000000000000000000000000000000000000000000000000000000000000000000000000000000000000000000000000000000000000000000000000000000000000000000000000000000000000000000
310
0000000000000000000000000000000000000000000000000000000000000000000000000000000000000000000000000000000000000000000000000000000000000000000000000000000000000000000000000000000000000000000000BE00000000000000000000000000000000000000000000000000000000000000
310
00000000000000000000000000000000000000000000000000000000000000000000000000000000000000000000BE0000000000000000000000000000000000000000000000000000000000000000000000000000000000000000000000000000000000000000000000000000000000000000000000000000000000000000
310
00000000000000000000000000000000000000000000000000000000000000000000000000000000000000000000000000000000000000000000000000000000000000000000000000000000000000000000000000000000000000000000000000BE0000000000000000000000000000000000000000000000000000000000
310
000000000000000000000000000000000000000000000000000000000000000000000000000000000000000000000000BE000000000000000000000000000000000000000000000000000000000000000000000000000000000000000000000000000000000000000000000000000000000000000000000000000000000000
310
000000000000000000000000000000000000000000000000000000000000000000000000000000000000000000000000000000000000000000000000000000000000000000000000000000000000000000000000000000000000000000000000000000BE000000000000000000000000000000000000000000000000000000
310
0000000000000000000000000000000000000000000000000000000000000000000000000000000000000000000000000000BE00000000000000000000000000000000000000000000000000000000000000000000000000000000000000000000000000000000000000000000000000000000000000000000000000000000
310
000000000000000000000000000000000000000000000000000000000000000000000000000000000000000000000000000000000000000000000000000000000000000000000000000000000000000000000000000000000000000000000000000000BE00BE00000000000000000000000000000000000000000000000000
310
00000000000000000000000000000000000000000000000000000000000000000000000000000000000000000000000000000000BE00BE000000000000000000000000000000000000000000000000000000000000000000000000000000000000000000000000000000000000000000000000000000000000000000000000
310
0000000000000000000000000000000000000000000000000000000000000000000000000000000000000000000000000000000000000000000000000000000000000000000000000000000000000000000000000000000000000000000000000000000000BE00BE0000000000000000000000000000000000000000000000
310
000000000000000000000000000000000000000000000000000000000000000000000000000000000000000000000000000000000000BE00BE00000000000000000000000000000000000000000000000000000000000000000000000000000000000000000000000000000000000000000000000000000000000000000000
310
00000000000000000000000000000000000000000000000000000000000000000000000000000000000000000000000000000000000000000000000000000000000000000000000000000000000000000000000000000000000000000000000000000000000000BE00BE000000000000000000000000000000000000000000
310
0000000000000000000000000000000000000000000000000000000000000000000000000000000000000000000000000000000000000000BE00BE0000000000000000000000000000000000000000000000000000000000000000000000000000000000000000000000000000000000000000000000000000000000000000
310
000000000000000000000000000000000000000000000000000000000000000000000000000000000000000000000000000000000000000000000000000000000000000000000000000000000000000000000000000000000000000000000000000000000000000000BE00BEBEBEBEBEBEBEBEBEBEBEBEBEBEBEBEBEBEBEBE
310
BEBEBEBEBEBEBEBEBEBEBEBEBEBEBEBEBEBEBEBEBEBEBEBEBEBEBEBEBEBEBEBEBEBEBEBEBEBEBEBEBEBEBEBEBEBEBEBEBEBEBEBEBEBEBEBEBEBEBE00BE000000000000000000000000000000000000000000000000000000000000000000000000000000000000000000000000000000000000000000000000000000000000
310
0000000000000000000000000000000000000000000000000000000000000000000000000000000000000000000000000000000000000000000000000000000000000000000000000000000000000000000000000000000000000000000000000000000000000000000000BE00000000000000000000000000000000000000
310
0000000000000000000000000000000000000000000000000000000000000000000000000000000000000000000000000000000000000000000000000000BE00000000000000000000000000000000000000000000000000000000000000000000000000000000000000000000000000000000000000000000000000000000
310
00000000000000000000000000000000000000000000000000000000000000000000000000000000000000000000000000000000000000000000000000000000000000000000000000000000000000000000000000000000000000000000000000000000000000000000000000BE0000000000000000000000000000000000
310
00000000000000000000000000000000000000000000000000000000000000000000000000000000000000000000000000000000000000000000000000000000BE0000000000000000000000000000000000000000000000000000000000000000000000000000000000000000000000000000000000000000000000000000
310
000000000000000000000000000000000000000000000000000000000000000000000000000000000000000000000000000000000000000000000000000000000000000000000000000000000000000000000000000000000000000000000000000000000000000000000000000000BEBEBEBEBEBEBE000000000000000000
310
000000000000000000000000000000000000000000000000000000000000000000000000000000000000000000000000000000000000000000000000BEBEBEBEBEBEBE000000000000000000000000000000000000000000000000000000000000000000000000000000000000000000000000000000000000000000000000
310
00000000000000000000000000000000000000000000000000000000000000000000000000000000000000000000000000000000000000000000000000000000000000000000000000000000000000000000000000000000000000000000000000000000000000000000000000000000000000000000000000000000000000
310
00000000000000000000000000000000000000000000000000000000000000000000000000000000000000000000000000000000000000000000000000000000000000000000000000000000000000000000000000000000000000000000000000000000000000000000000000000000000000000000000000000000000000
310
00000000000000000000000000000000000000000000000000000000000000000000000000000000000000000000000000000000000000000000000000000000000000000000000000000000000000000000000000000000000000000000000000000000000000000000000000000000000000000000000000000000000000
310
00000000000000000000000000000000000000000000000000000000000000000000000000000000000000000000000000000000000000000000000000000000000000000000000000000000000000000000000000000000000000000000000000000000000000000000000000000000000000000000000000000000000000
310
00000000000000000000000000000000000000000000000000000000000000000000000000000000000000000000000000000000000000000000000000000000000000000000000000000000000000000000000000000000000000000000000000000000000000000000000000000000000000000000000000000000000000
310
00000000000000000000000000000000000000000000000000000000000000000000000000000000000000000000000000000000000000000000000000000000000000000000000000000000000000000000000000000000000000000000000000000000000000000000000000000000000000000000000000000000000000
310
00000000000000000000000000000000000000000000000000000000000000000000000000000000000000000000000000000000000000000000000000000000000000000000000000000000000000000000000000000000000000000000000000000000000000000000000000000000000000000000000000000000000000
310
00000000000000000000000000000000000000000000000000000000000000000000000000000000000000000000000000000000000000000000000000000000000000000000000000000000000000000000000000000000000000000000000000000000000000000000000000000000000000000000000000000000000000
310
00000000000000000000000000000000000000000000000000000000000000000000000000000000000000000000000000000000000000000000000000000000000000000000000000000000000000000000000000000000000000000000000000000000000000000000000000000000000000000000000000000000000000
310
00000000000000000000000000000000000000000000000000000000000000000000000000000000000000000000000000000000000000000000000000000000000000000000000000000000000000000000000000000000000000000000000000000000000000000000000000000000000000000000000000000000000000
310
00000000000000000000000000000000000000000000000000000000000000000000000000000000000000000000000000000000000000000000000000000000000000000000000000000000000000000000000000000000000000000000000000000000000000000000000000000000000000000000000000000000000000
310
00000000000000000000000000000000000000000000000000000000000000000000000000000000000000000000000000000000000000000000000000000000000000000000000000000000000000000000000000000000000000000000000000000000000000000000000000000000000000000000000000000000000000
310
00000000000000000000000000000000000000000000000000000000000000000000000000000000000000000000000000000000000000000000000000000000000000000000000000000000000000000000000000000000000000000000000000000000000000000000000000000000000000000000000000000000000000
310
00000000000000000000000000000000000000000000000000000000000000000000000000000000000000000000000000000000000000000000000000000000000000000000000000000000000000000000000000000000000000000000000000000000000000000000000000000000000000000000000000000000000000
310
00000000000000000000000000000000000000000000000000000000000000000000000000000000000000000000000000000000000000000000000000000000000000000000000000000000000000000000000000000000000000000000000000000000000000000000000000000000000000000000000000000000000000
310
00000000000000000000000000000000000000000000000000000000000000000000000000000000000000000000000000000000000000000000000000000000000000000000000000000000000000000000000000000000000000000000000000000000000000000000000000000000000000000000000000000000000000
310
0000000000000000000000000000000000000000000000000000000000000000000000000000000000000000000000000000
  0
XRECORD
  5
FEE4
102
{ACAD_REACTORS
330
FEE3
102
}
330
FEE3
100
AcDbXrecord
280
     1
102
MATERIAL
148
0.0
149
0.0
149
0.0
 93
        0
 94
       63
282
     0
 72
     1
 77
     1
171
     1
175
     1
179
     1
273
     0
  0
XRECORD
  5
FEE2
102
{ACAD_REACTORS
330
FEE1
102
}
330
FEE1
100
AcDbXrecord
280
     1
102
MATERIAL
148
0.0
149
0.0
149
0.0
 93
        0
 94
       63
282
     0
 72
     1
 77
     1
171
     1
175
     1
179
     1
273
     0
  0
XRECORD
  5
FEE6
102
{ACAD_REACTORS
330
FEE5
102
}
330
FEE5
100
AcDbXrecord
280
     1
102
MATERIAL
148
0.0
149
0.0
149
0.0
 93
        0
 94
       63
282
     0
 72
     1
 77
     1
171
     1
175
     1
179
     1
273
     0
  0
XRECORD
  5
FEA0
102
{ACAD_REACTORS
330
FE9F
102
}
330
FE9F
100
AcDbXrecord
280
     1
102
ACAD_ROUNDTRIP_2012_MLEADER_STYLE
298
     1
  0
CELLSTYLEMAP
  5
FEDD
102
{ACAD_REACTORS
330
F8B0
102
}
330
F8B0
100
AcDbCellStyleMap
 90
        3
300
CELLSTYLE
  1
TABLEFORMAT_BEGIN
 90
        5
170
     1
 91
        0
 92
    32768
 62
   257
 93
        1
300
CONTENTFORMAT
  1
CONTENTFORMAT_BEGIN
 90
        0
 91
        0
 92
      512
 93
        0
300

 40
0.0
140
1.0
 94
        5
 62
     0
340
F
144
6.0
309
CONTENTFORMAT_END
171
     1
301
MARGIN
  1
CELLMARGIN_BEGIN
 40
1.5
 40
1.5
 40
1.5
 40
1.5
 40
0.18
 40
0.18
309
CELLMARGIN_END
 94
        6
 95
        1
302
GRIDFORMAT
  1
GRIDFORMAT_BEGIN
 90
        0
 91
        1
 62
     0
 92
       -2
340
0
 93
        0
 40
0.045
309
GRIDFORMAT_END
 95
        2
302
GRIDFORMAT
  1
GRIDFORMAT_BEGIN
 90
        0
 91
        1
 62
     0
 92
       -2
340
0
 93
        0
 40
0.045
309
GRIDFORMAT_END
 95
        4
302
GRIDFORMAT
  1
GRIDFORMAT_BEGIN
 90
        0
 91
        1
 62
     0
 92
       -2
340
0
 93
        0
 40
0.045
309
GRIDFORMAT_END
 95
        8
302
GRIDFORMAT
  1
GRIDFORMAT_BEGIN
 90
        0
 91
        1
 62
     0
 92
       -2
340
0
 93
        0
 40
0.045
309
GRIDFORMAT_END
 95
       16
302
GRIDFORMAT
  1
GRIDFORMAT_BEGIN
 90
        0
 91
        1
 62
     0
 92
       -2
340
0
 93
        0
 40
0.045
309
GRIDFORMAT_END
 95
       32
302
GRIDFORMAT
  1
GRIDFORMAT_BEGIN
 90
        0
 91
        1
 62
     0
 92
       -2
340
0
 93
        0
 40
0.045
309
GRIDFORMAT_END
309
TABLEFORMAT_END
  1
CELLSTYLE_BEGIN
 90
        1
 91
        1
300
_TITLE
309
CELLSTYLE_END
300
CELLSTYLE
  1
TABLEFORMAT_BEGIN
 90
        5
170
     1
 91
        0
 92
        0
 62
   257
 93
        1
300
CONTENTFORMAT
  1
CONTENTFORMAT_BEGIN
 90
        0
 91
        0
 92
      512
 93
        0
300

 40
0.0
140
1.0
 94
        5
 62
     0
340
F
144
4.5
309
CONTENTFORMAT_END
171
     1
301
MARGIN
  1
CELLMARGIN_BEGIN
 40
1.5
 40
1.5
 40
1.5
 40
1.5
 40
0.18
 40
0.18
309
CELLMARGIN_END
 94
        6
 95
        1
302
GRIDFORMAT
  1
GRIDFORMAT_BEGIN
 90
        0
 91
        1
 62
     0
 92
       -2
340
0
 93
        0
 40
0.045
309
GRIDFORMAT_END
 95
        2
302
GRIDFORMAT
  1
GRIDFORMAT_BEGIN
 90
        0
 91
        1
 62
     0
 92
       -2
340
0
 93
        0
 40
0.045
309
GRIDFORMAT_END
 95
        4
302
GRIDFORMAT
  1
GRIDFORMAT_BEGIN
 90
        0
 91
        1
 62
     0
 92
       -2
340
0
 93
        0
 40
0.045
309
GRIDFORMAT_END
 95
        8
302
GRIDFORMAT
  1
GRIDFORMAT_BEGIN
 90
        0
 91
        1
 62
     0
 92
       -2
340
0
 93
        0
 40
0.045
309
GRIDFORMAT_END
 95
       16
302
GRIDFORMAT
  1
GRIDFORMAT_BEGIN
 90
        0
 91
        1
 62
     0
 92
       -2
340
0
 93
        0
 40
0.045
309
GRIDFORMAT_END
 95
       32
302
GRIDFORMAT
  1
GRIDFORMAT_BEGIN
 90
        0
 91
        1
 62
     0
 92
       -2
340
0
 93
        0
 40
0.045
309
GRIDFORMAT_END
309
TABLEFORMAT_END
  1
CELLSTYLE_BEGIN
 90
        2
 91
        1
300
_HEADER
309
CELLSTYLE_END
300
CELLSTYLE
  1
TABLEFORMAT_BEGIN
 90
        5
170
     1
 91
        0
 92
        0
 62
   257
 93
        1
300
CONTENTFORMAT
  1
CONTENTFORMAT_BEGIN
 90
        0
 91
        0
 92
      512
 93
        0
300

 40
0.0
140
1.0
 94
        2
 62
     0
340
F
144
4.5
309
CONTENTFORMAT_END
171
     1
301
MARGIN
  1
CELLMARGIN_BEGIN
 40
1.5
 40
1.5
 40
1.5
 40
1.5
 40
0.18
 40
0.18
309
CELLMARGIN_END
 94
        6
 95
        1
302
GRIDFORMAT
  1
GRIDFORMAT_BEGIN
 90
        0
 91
        1
 62
     0
 92
       -2
340
0
 93
        0
 40
0.045
309
GRIDFORMAT_END
 95
        2
302
GRIDFORMAT
  1
GRIDFORMAT_BEGIN
 90
        0
 91
        1
 62
     0
 92
       -2
340
0
 93
        0
 40
0.045
309
GRIDFORMAT_END
 95
        4
302
GRIDFORMAT
  1
GRIDFORMAT_BEGIN
 90
        0
 91
        1
 62
     0
 92
       -2
340
0
 93
        0
 40
0.045
309
GRIDFORMAT_END
 95
        8
302
GRIDFORMAT
  1
GRIDFORMAT_BEGIN
 90
        0
 91
        1
 62
     0
 92
       -2
340
0
 93
        0
 40
0.045
309
GRIDFORMAT_END
 95
       16
302
GRIDFORMAT
  1
GRIDFORMAT_BEGIN
 90
        0
 91
        1
 62
     0
 92
       -2
340
0
 93
        0
 40
0.045
309
GRIDFORMAT_END
 95
       32
302
GRIDFORMAT
  1
GRIDFORMAT_BEGIN
 90
        0
 91
        1
 62
     0
 92
       -2
340
0
 93
        0
 40
0.045
309
GRIDFORMAT_END
309
TABLEFORMAT_END
  1
CELLSTYLE_BEGIN
 90
        3
 91
        2
300
_DATA
309
CELLSTYLE_END
  0
XRECORD
  5
FF07
102
{ACAD_REACTORS
330
F8B0
102
}
330
F8B0
100
AcDbXrecord
280
     1
102
ACAD_ROUNDTRIP_PRE2007_TABLESTYLE
 90
      512
 91
        0
  1

 92
      512
 93
        0
  2

 94
      512
 95
        0
  3

  0
XRECORD
  5
FEF2
102
{ACAD_REACTORS
330
FEF1
102
}
330
FEF1
100
AcDbXrecord
280
     1
102
RTVSPropertyOp0
 70
     1
102
RTVSPropertyOp1
 70
     1
102
RTVSPropertyOp2
 70
     1
102
RTVSPropertyOp3
 70
     1
102
RTVSPropertyOp4
 70
     1
102
RTVSPropertyOp5
 70
     1
102
RTVSPropertyOp6
 70
     1
102
RTVSPropertyOp7
 70
     1
102
RTVSPropertyOp8
 70
     1
102
RTVSPropertyOp9
 70
     1
102
RTVSPropertyOp10
 70
     1
102
RTVSPropertyOp11
 70
     1
102
RTVSPropertyOp12
 70
     1
102
RTVSPropertyOp13
 70
     1
102
RTVSPropertyOp14
 70
     1
102
RTVSPropertyOp15
 70
     1
102
RTVSPropertyOp16
 70
     1
102
RTVSPropertyOp17
 70
     1
102
RTVSPropertyOp18
 70
     1
102
RTVSPropertyOp19
 70
     1
102
RTVSPropertyOp20
 70
     1
102
RTVSPropertyOp21
 70
     1
102
RTVSPropertyOp22
 70
     1
102
RTVSPropertyOp23
 70
     1
102
RTVSPropertyOp24
 70
     1
102
RTVSPropertyOp25
 70
     1
102
RTVSPropertyOp26
 70
     1
102
RTVSPropertyOp27
 70
     1
102
RTVSPropertyOp28
 70
     1
102
RTVSPropertyOp29
 70
     1
102
RTVSPropertyOp30
 70
     1
102
RTVSPropertyOp31
 70
     1
102
RTVSPropertyOp32
 70
     1
  0
XRECORD
  5
FEF6
102
{ACAD_REACTORS
330
FEF5
102
}
330
FEF5
100
AcDbXrecord
280
     1
102
RTVSPropertyOp0
 70
     1
102
RTVSPropertyOp1
 70
     1
102
RTVSPropertyOp2
 70
     1
102
RTVSPropertyOp3
 70
     1
102
RTVSPropertyOp4
 70
     1
102
RTVSPropertyOp5
 70
     1
102
RTVSPropertyOp6
 70
     1
102
RTVSPropertyOp7
 70
     1
102
RTVSPropertyOp8
 70
     1
102
RTVSPropertyOp9
 70
     1
102
RTVSPropertyOp10
 70
     1
102
RTVSPropertyOp11
 70
     1
102
RTVSPropertyOp12
 70
     1
102
RTVSPropertyOp13
 70
     1
102
RTVSPropertyOp14
 70
     1
102
RTVSPropertyOp15
 70
     1
102
RTVSPropertyOp16
 70
     1
102
RTVSPropertyOp17
 70
     1
102
RTVSPropertyOp18
 70
     1
102
RTVSPropertyOp19
 70
     1
102
RTVSPropertyOp20
 70
     1
102
RTVSPropertyOp21
 70
     1
102
RTVSPropertyOp22
 70
     1
102
RTVSPropertyOp23
 70
     1
102
RTVSPropertyOp24
 70
     1
102
RTVSPropertyOp25
 70
     1
102
RTVSPropertyOp26
 70
     1
102
RTVSPropertyOp27
 70
     1
102
RTVSPropertyOp28
 70
     1
102
RTVSPropertyOp29
 70
     1
102
RTVSPropertyOp30
 70
     1
102
RTVSPropertyOp31
 70
     1
102
RTVSPropertyOp32
 70
     1
  0
XRECORD
  5
FEF4
102
{ACAD_REACTORS
330
FEF3
102
}
330
FEF3
100
AcDbXrecord
280
     1
102
RTVSPropertyOp0
 70
     1
102
RTVSPropertyOp1
 70
     1
102
RTVSPropertyOp2
 70
     1
102
RTVSPropertyOp3
 70
     1
102
RTVSPropertyOp4
 70
     1
102
RTVSPropertyOp5
 70
     1
102
RTVSPropertyOp6
 70
     1
102
RTVSPropertyOp7
 70
     1
102
RTVSPropertyOp8
 70
     1
102
RTVSPropertyOp9
 70
     1
102
RTVSPropertyOp10
 70
     1
102
RTVSPropertyOp11
 70
     1
102
RTVSPropertyOp12
 70
     1
102
RTVSPropertyOp13
 70
     1
102
RTVSPropertyOp14
 70
     1
102
RTVSPropertyOp15
 70
     1
102
RTVSPropertyOp16
 70
     1
102
RTVSPropertyOp17
 70
     1
102
RTVSPropertyOp18
 70
     1
102
RTVSPropertyOp19
 70
     1
102
RTVSPropertyOp20
 70
     1
102
RTVSPropertyOp21
 70
     1
102
RTVSPropertyOp22
 70
     1
102
RTVSPropertyOp23
 70
     1
102
RTVSPropertyOp24
 70
     1
102
RTVSPropertyOp25
 70
     1
102
RTVSPropertyOp26
 70
     1
102
RTVSPropertyOp27
 70
     1
102
RTVSPropertyOp28
 70
     1
102
RTVSPropertyOp29
 70
     1
102
RTVSPropertyOp30
 70
     1
102
RTVSPropertyOp31
 70
     1
102
RTVSPropertyOp32
 70
     1
  0
XRECORD
  5
FEF0
102
{ACAD_REACTORS
330
FEEF
102
}
330
FEEF
100
AcDbXrecord
280
     1
102
RTVSPropertyOp0
 70
     1
102
RTVSPropertyOp1
 70
     1
102
RTVSPropertyOp2
 70
     1
102
RTVSPropertyOp3
 70
     1
102
RTVSPropertyOp4
 70
     1
102
RTVSPropertyOp5
 70
     1
102
RTVSPropertyOp6
 70
     1
102
RTVSPropertyOp7
 70
     1
102
RTVSPropertyOp8
 70
     1
102
RTVSPropertyOp9
 70
     1
102
RTVSPropertyOp10
 70
     1
102
RTVSPropertyOp11
 70
     1
102
RTVSPropertyOp12
 70
     1
102
RTVSPropertyOp13
 70
     1
102
RTVSPropertyOp14
 70
     1
102
RTVSPropertyOp15
 70
     1
102
RTVSPropertyOp16
 70
     1
102
RTVSPropertyOp17
 70
     1
102
RTVSPropertyOp18
 70
     1
102
RTVSPropertyOp19
 70
     1
102
RTVSPropertyOp20
 70
     1
102
RTVSPropertyOp21
 70
     1
102
RTVSPropertyOp22
 70
     1
102
RTVSPropertyOp23
 70
     1
102
RTVSPropertyOp24
 70
     1
102
RTVSPropertyOp25
 70
     1
102
RTVSPropertyOp26
 70
     1
102
RTVSPropertyOp27
 70
     1
102
RTVSPropertyOp28
 70
     1
102
RTVSPropertyOp29
 70
     1
102
RTVSPropertyOp30
 70
     1
102
RTVSPropertyOp31
 70
     1
102
RTVSPropertyOp32
 70
     1
  0
XRECORD
  5
FEFE
102
{ACAD_REACTORS
330
FEFD
102
}
330
FEFD
100
AcDbXrecord
280
     1
102
RTVSPropertyOp0
 70
     1
102
RTVSPropertyOp1
 70
     1
102
RTVSPropertyOp2
 70
     1
102
RTVSPropertyOp3
 70
     1
102
RTVSPropertyOp4
 70
     1
102
RTVSPropertyOp5
 70
     1
102
RTVSPropertyOp6
 70
     1
102
RTVSPropertyOp7
 70
     1
102
RTVSPropertyOp8
 70
     1
102
RTVSPropertyOp9
 70
     1
102
RTVSPropertyOp10
 70
     1
102
RTVSPropertyOp11
 70
     1
102
RTVSPropertyOp12
 70
     1
102
RTVSPropertyOp13
 70
     1
102
RTVSPropertyOp14
 70
     1
102
RTVSPropertyOp15
 70
     1
102
RTVSPropertyOp16
 70
     1
102
RTVSPropertyOp17
 70
     1
102
RTVSPropertyOp18
 70
     1
102
RTVSPropertyOp19
 70
     1
102
RTVSPropertyOp20
 70
     1
102
RTVSPropertyOp21
 70
     1
102
RTVSPropertyOp22
 70
     1
102
RTVSPropertyOp23
 70
     1
102
RTVSPropertyOp24
 70
     1
102
RTVSPropertyOp25
 70
     1
102
RTVSPropertyOp26
 70
     1
102
RTVSPropertyOp27
 70
     1
102
RTVSPropertyOp28
 70
     1
102
RTVSPropertyOp29
 70
     1
102
RTVSPropertyOp30
 70
     1
102
RTVSPropertyOp31
 70
     1
102
RTVSPropertyOp32
 70
     1
  0
XRECORD
  5
FF06
102
{ACAD_REACTORS
330
FF05
102
}
330
FF05
100
AcDbXrecord
280
     1
102
RTVSPropertyOp0
 70
     1
102
RTVSPropertyOp1
 70
     1
102
RTVSPropertyOp2
 70
     1
102
RTVSPropertyOp3
 70
     1
102
RTVSPropertyOp4
 70
     1
102
RTVSPropertyOp5
 70
     1
102
RTVSPropertyOp6
 70
     1
102
RTVSPropertyOp7
 70
     1
102
RTVSPropertyOp8
 70
     1
102
RTVSPropertyOp9
 70
     1
102
RTVSPropertyOp10
 70
     1
102
RTVSPropertyOp11
 70
     1
102
RTVSPropertyOp12
 70
     1
102
RTVSPropertyOp13
 70
     1
102
RTVSPropertyOp14
 70
     1
102
RTVSPropertyOp15
 70
     1
102
RTVSPropertyOp16
 70
     1
102
RTVSPropertyOp17
 70
     1
102
RTVSPropertyOp18
 70
     1
102
RTVSPropertyOp19
 70
     1
102
RTVSPropertyOp20
 70
     1
102
RTVSPropertyOp21
 70
     1
102
RTVSPropertyOp22
 70
     1
102
RTVSPropertyOp23
 70
     1
102
RTVSPropertyOp24
 70
     1
102
RTVSPropertyOp25
 70
     1
102
RTVSPropertyOp26
 70
     1
102
RTVSPropertyOp27
 70
     1
102
RTVSPropertyOp28
 70
     1
102
RTVSPropertyOp29
 70
     1
102
RTVSPropertyOp30
 70
     1
102
RTVSPropertyOp31
 70
     1
102
RTVSPropertyOp32
 70
     1
  0
XRECORD
  5
FEF8
102
{ACAD_REACTORS
330
FEF7
102
}
330
FEF7
100
AcDbXrecord
280
     1
102
RTVSPropertyOp0
 70
     1
102
RTVSPropertyOp1
 70
     1
102
RTVSPropertyOp2
 70
     1
102
RTVSPropertyOp3
 70
     1
102
RTVSPropertyOp4
 70
     1
102
RTVSPropertyOp5
 70
     1
102
RTVSPropertyOp6
 70
     1
102
RTVSPropertyOp7
 70
     1
102
RTVSPropertyOp8
 70
     1
102
RTVSPropertyOp9
 70
     1
102
RTVSPropertyOp10
 70
     1
102
RTVSPropertyOp11
 70
     1
102
RTVSPropertyOp12
 70
     1
102
RTVSPropertyOp13
 70
     1
102
RTVSPropertyOp14
 70
     1
102
RTVSPropertyOp15
 70
     1
102
RTVSPropertyOp16
 70
     1
102
RTVSPropertyOp17
 70
     1
102
RTVSPropertyOp18
 70
     1
102
RTVSPropertyOp19
 70
     1
102
RTVSPropertyOp20
 70
     1
102
RTVSPropertyOp21
 70
     1
102
RTVSPropertyOp22
 70
     1
102
RTVSPropertyOp23
 70
     1
102
RTVSPropertyOp24
 70
     1
102
RTVSPropertyOp25
 70
     1
102
RTVSPropertyOp26
 70
     1
102
RTVSPropertyOp27
 70
     1
102
RTVSPropertyOp28
 70
     1
102
RTVSPropertyOp29
 70
     1
102
RTVSPropertyOp30
 70
     1
102
RTVSPropertyOp31
 70
     1
102
RTVSPropertyOp32
 70
     1
  0
XRECORD
  5
FEFC
102
{ACAD_REACTORS
330
FEFB
102
}
330
FEFB
100
AcDbXrecord
280
     1
102
RTVSPropertyOp0
 70
     1
102
RTVSPropertyOp1
 70
     1
102
RTVSPropertyOp2
 70
     1
102
RTVSPropertyOp3
 70
     1
102
RTVSPropertyOp4
 70
     1
102
RTVSPropertyOp5
 70
     1
102
RTVSPropertyOp6
 70
     1
102
RTVSPropertyOp7
 70
     1
102
RTVSPropertyOp8
 70
     1
102
RTVSPropertyOp9
 70
     1
102
RTVSPropertyOp10
 70
     1
102
RTVSPropertyOp11
 70
     1
102
RTVSPropertyOp12
 70
     1
102
RTVSPropertyOp13
 70
     1
102
RTVSPropertyOp14
 70
     1
102
RTVSPropertyOp15
 70
     1
102
RTVSPropertyOp16
 70
     1
102
RTVSPropertyOp17
 70
     1
102
RTVSPropertyOp18
 70
     1
102
RTVSPropertyOp19
 70
     1
102
RTVSPropertyOp20
 70
     1
102
RTVSPropertyOp21
 70
     1
102
RTVSPropertyOp22
 70
     1
102
RTVSPropertyOp23
 70
     1
102
RTVSPropertyOp24
 70
     1
102
RTVSPropertyOp25
 70
     1
102
RTVSPropertyOp26
 70
     1
102
RTVSPropertyOp27
 70
     1
102
RTVSPropertyOp28
 70
     1
102
RTVSPropertyOp29
 70
     1
102
RTVSPropertyOp30
 70
     1
102
RTVSPropertyOp31
 70
     1
102
RTVSPropertyOp32
 70
     1
  0
XRECORD
  5
FF1B
102
{ACAD_REACTORS
330
FF1A
102
}
330
FF1A
100
AcDbXrecord
280
     1
102
RTVSPropertyOp0
 70
     0
102
RTVSPropertyOp1
 70
     0
102
RTVSPropertyOp2
 70
     0
102
RTVSPropertyOp3
 70
     0
102
RTVSPropertyOp4
 70
     0
102
RTVSPropertyOp5
 70
     0
102
RTVSPropertyOp6
 70
     0
102
RTVSPropertyOp7
 70
     0
102
RTVSPropertyOp8
 70
     0
102
RTVSPropertyOp9
 70
     0
102
RTVSPropertyOp10
 70
     0
102
RTVSPropertyOp11
 70
     0
102
RTVSPropertyOp12
 70
     0
102
RTVSPropertyOp13
 70
     0
102
RTVSPropertyOp14
 70
     2
102
RTVSPropertyOp15
 70
     0
102
RTVSPropertyOp16
 70
     0
102
RTVSPropertyOp17
 70
     0
102
RTVSPropertyOp18
 70
     0
102
RTVSPropertyOp19
 70
     0
102
RTVSPropertyOp20
 70
     0
102
RTVSPropertyOp21
 70
     0
102
RTVSPropertyOp22
 70
     0
102
RTVSPropertyOp23
 70
     0
102
RTVSPropertyOp24
 70
     0
102
RTVSPropertyOp25
 70
     0
102
RTVSPropertyOp26
 70
     0
102
RTVSPropertyOp27
 70
     0
102
RTVSPropertyOp28
 70
     1
102
RTVSPropertyOp29
 70
     1
102
RTVSPropertyOp30
 70
     1
102
RTVSPropertyOp31
 70
     1
102
RTVSPropertyOp32
 70
     1
  0
XRECORD
  5
FF04
102
{ACAD_REACTORS
330
FF03
102
}
330
FF03
100
AcDbXrecord
280
     1
102
RTVSPropertyOp0
 70
     1
102
RTVSPropertyOp1
 70
     1
102
RTVSPropertyOp2
 70
     1
102
RTVSPropertyOp3
 70
     1
102
RTVSPropertyOp4
 70
     1
102
RTVSPropertyOp5
 70
     1
102
RTVSPropertyOp6
 70
     1
102
RTVSPropertyOp7
 70
     1
102
RTVSPropertyOp8
 70
     1
102
RTVSPropertyOp9
 70
     1
102
RTVSPropertyOp10
 70
     1
102
RTVSPropertyOp11
 70
     1
102
RTVSPropertyOp12
 70
     1
102
RTVSPropertyOp13
 70
     1
102
RTVSPropertyOp14
 70
     1
102
RTVSPropertyOp15
 70
     1
102
RTVSPropertyOp16
 70
     1
102
RTVSPropertyOp17
 70
     1
102
RTVSPropertyOp18
 70
     1
102
RTVSPropertyOp19
 70
     1
102
RTVSPropertyOp20
 70
     1
102
RTVSPropertyOp21
 70
     1
102
RTVSPropertyOp22
 70
     1
102
RTVSPropertyOp23
 70
     1
102
RTVSPropertyOp24
 70
     1
102
RTVSPropertyOp25
 70
     1
102
RTVSPropertyOp26
 70
     1
102
RTVSPropertyOp27
 70
     1
102
RTVSPropertyOp28
 70
     1
102
RTVSPropertyOp29
 70
     1
102
RTVSPropertyOp30
 70
     1
102
RTVSPropertyOp31
 70
     1
102
RTVSPropertyOp32
 70
     1
  0
XRECORD
  5
FEE8
102
{ACAD_REACTORS
330
FEE7
102
}
330
FEE7
100
AcDbXrecord
280
     1
102
RTVSPropertyOp0
 70
     1
102
RTVSPropertyOp1
 70
     1
102
RTVSPropertyOp2
 70
     1
102
RTVSPropertyOp3
 70
     1
102
RTVSPropertyOp4
 70
     1
102
RTVSPropertyOp5
 70
     1
102
RTVSPropertyOp6
 70
     1
102
RTVSPropertyOp7
 70
     1
102
RTVSPropertyOp8
 70
     1
102
RTVSPropertyOp9
 70
     1
102
RTVSPropertyOp10
 70
     1
102
RTVSPropertyOp11
 70
     1
102
RTVSPropertyOp12
 70
     1
102
RTVSPropertyOp13
 70
     1
102
RTVSPropertyOp14
 70
     1
102
RTVSPropertyOp15
 70
     1
102
RTVSPropertyOp16
 70
     1
102
RTVSPropertyOp17
 70
     1
102
RTVSPropertyOp18
 70
     1
102
RTVSPropertyOp19
 70
     1
102
RTVSPropertyOp20
 70
     1
102
RTVSPropertyOp21
 70
     1
102
RTVSPropertyOp22
 70
     1
102
RTVSPropertyOp23
 70
     1
102
RTVSPropertyOp24
 70
     1
102
RTVSPropertyOp25
 70
     1
102
RTVSPropertyOp26
 70
     1
102
RTVSPropertyOp27
 70
     1
102
RTVSPropertyOp28
 70
     1
102
RTVSPropertyOp29
 70
     1
102
RTVSPropertyOp30
 70
     1
102
RTVSPropertyOp31
 70
     1
102
RTVSPropertyOp32
 70
     1
  0
XRECORD
  5
FEEA
102
{ACAD_REACTORS
330
FEE9
102
}
330
FEE9
100
AcDbXrecord
280
     1
102
RTVSPropertyOp0
 70
     1
102
RTVSPropertyOp1
 70
     1
102
RTVSPropertyOp2
 70
     1
102
RTVSPropertyOp3
 70
     1
102
RTVSPropertyOp4
 70
     1
102
RTVSPropertyOp5
 70
     1
102
RTVSPropertyOp6
 70
     1
102
RTVSPropertyOp7
 70
     1
102
RTVSPropertyOp8
 70
     1
102
RTVSPropertyOp9
 70
     1
102
RTVSPropertyOp10
 70
     1
102
RTVSPropertyOp11
 70
     1
102
RTVSPropertyOp12
 70
     1
102
RTVSPropertyOp13
 70
     1
102
RTVSPropertyOp14
 70
     1
102
RTVSPropertyOp15
 70
     1
102
RTVSPropertyOp16
 70
     1
102
RTVSPropertyOp17
 70
     1
102
RTVSPropertyOp18
 70
     1
102
RTVSPropertyOp19
 70
     1
102
RTVSPropertyOp20
 70
     1
102
RTVSPropertyOp21
 70
     1
102
RTVSPropertyOp22
 70
     1
102
RTVSPropertyOp23
 70
     1
102
RTVSPropertyOp24
 70
     1
102
RTVSPropertyOp25
 70
     1
102
RTVSPropertyOp26
 70
     1
102
RTVSPropertyOp27
 70
     1
102
RTVSPropertyOp28
 70
     1
102
RTVSPropertyOp29
 70
     1
102
RTVSPropertyOp30
 70
     1
102
RTVSPropertyOp31
 70
     1
102
RTVSPropertyOp32
 70
     1
  0
XRECORD
  5
FEEC
102
{ACAD_REACTORS
330
FEEB
102
}
330
FEEB
100
AcDbXrecord
280
     1
102
RTVSPropertyOp0
 70
     1
102
RTVSPropertyOp1
 70
     1
102
RTVSPropertyOp2
 70
     1
102
RTVSPropertyOp3
 70
     1
102
RTVSPropertyOp4
 70
     1
102
RTVSPropertyOp5
 70
     1
102
RTVSPropertyOp6
 70
     1
102
RTVSPropertyOp7
 70
     1
102
RTVSPropertyOp8
 70
     1
102
RTVSPropertyOp9
 70
     1
102
RTVSPropertyOp10
 70
     1
102
RTVSPropertyOp11
 70
     1
102
RTVSPropertyOp12
 70
     1
102
RTVSPropertyOp13
 70
     1
102
RTVSPropertyOp14
 70
     1
102
RTVSPropertyOp15
 70
     1
102
RTVSPropertyOp16
 70
     1
102
RTVSPropertyOp17
 70
     1
102
RTVSPropertyOp18
 70
     1
102
RTVSPropertyOp19
 70
     1
102
RTVSPropertyOp20
 70
     1
102
RTVSPropertyOp21
 70
     1
102
RTVSPropertyOp22
 70
     1
102
RTVSPropertyOp23
 70
     1
102
RTVSPropertyOp24
 70
     1
102
RTVSPropertyOp25
 70
     1
102
RTVSPropertyOp26
 70
     1
102
RTVSPropertyOp27
 70
     1
102
RTVSPropertyOp28
 70
     1
102
RTVSPropertyOp29
 70
     1
102
RTVSPropertyOp30
 70
     1
102
RTVSPropertyOp31
 70
     1
102
RTVSPropertyOp32
 70
     1
  0
XRECORD
  5
FEEE
102
{ACAD_REACTORS
330
FEED
102
}
330
FEED
100
AcDbXrecord
280
     1
102
RTVSPropertyOp0
 70
     1
102
RTVSPropertyOp1
 70
     1
102
RTVSPropertyOp2
 70
     1
102
RTVSPropertyOp3
 70
     1
102
RTVSPropertyOp4
 70
     1
102
RTVSPropertyOp5
 70
     1
102
RTVSPropertyOp6
 70
     1
102
RTVSPropertyOp7
 70
     1
102
RTVSPropertyOp8
 70
     1
102
RTVSPropertyOp9
 70
     1
102
RTVSPropertyOp10
 70
     1
102
RTVSPropertyOp11
 70
     1
102
RTVSPropertyOp12
 70
     1
102
RTVSPropertyOp13
 70
     1
102
RTVSPropertyOp14
 70
     1
102
RTVSPropertyOp15
 70
     1
102
RTVSPropertyOp16
 70
     1
102
RTVSPropertyOp17
 70
     1
102
RTVSPropertyOp18
 70
     1
102
RTVSPropertyOp19
 70
     1
102
RTVSPropertyOp20
 70
     1
102
RTVSPropertyOp21
 70
     1
102
RTVSPropertyOp22
 70
     1
102
RTVSPropertyOp23
 70
     1
102
RTVSPropertyOp24
 70
     1
102
RTVSPropertyOp25
 70
     1
102
RTVSPropertyOp26
 70
     1
102
RTVSPropertyOp27
 70
     1
102
RTVSPropertyOp28
 70
     1
102
RTVSPropertyOp29
 70
     1
102
RTVSPropertyOp30
 70
     1
102
RTVSPropertyOp31
 70
     1
102
RTVSPropertyOp32
 70
     1
  0
XRECORD
  5
FF0B
102
{ACAD_REACTORS
330
FF0A
102
}
330
FF0A
100
AcDbXrecord
280
     1
102
RTVSPropertyOp0
 70
     1
102
RTVSPropertyOp1
 70
     1
102
RTVSPropertyOp2
 70
     1
102
RTVSPropertyOp3
 70
     1
102
RTVSPropertyOp4
 70
     1
102
RTVSPropertyOp5
 70
     1
102
RTVSPropertyOp6
 70
     1
102
RTVSPropertyOp7
 70
     1
102
RTVSPropertyOp8
 70
     1
102
RTVSPropertyOp9
 70
     1
102
RTVSPropertyOp10
 70
     1
102
RTVSPropertyOp11
 70
     1
102
RTVSPropertyOp12
 70
     1
102
RTVSPropertyOp13
 70
     1
102
RTVSPropertyOp14
 70
     1
102
RTVSPropertyOp15
 70
     1
102
RTVSPropertyOp16
 70
     1
102
RTVSPropertyOp17
 70
     1
102
RTVSPropertyOp18
 70
     1
102
RTVSPropertyOp19
 70
     1
102
RTVSPropertyOp20
 70
     1
102
RTVSPropertyOp21
 70
     1
102
RTVSPropertyOp22
 70
     1
102
RTVSPropertyOp23
 70
     1
102
RTVSPropertyOp24
 70
     1
102
RTVSPropertyOp25
 70
     1
102
RTVSPropertyOp26
 70
     1
102
RTVSPropertyOp27
 70
     1
102
RTVSPropertyOp28
 70
     1
102
RTVSPropertyOp29
 70
     1
102
RTVSPropertyOp30
 70
     1
102
RTVSPropertyOp31
 70
     1
102
RTVSPropertyOp32
 70
     1
  0
XRECORD
  5
FF17
102
{ACAD_REACTORS
330
FF16
102
}
330
FF16
100
AcDbXrecord
280
     1
102
RTVSPropertyOp0
 70
     0
102
RTVSPropertyOp1
 70
     0
102
RTVSPropertyOp2
 70
     0
102
RTVSPropertyOp3
 70
     0
102
RTVSPropertyOp4
 70
     0
102
RTVSPropertyOp5
 70
     0
102
RTVSPropertyOp6
 70
     0
102
RTVSPropertyOp7
 70
     0
102
RTVSPropertyOp8
 70
     0
102
RTVSPropertyOp9
 70
     0
102
RTVSPropertyOp10
 70
     0
102
RTVSPropertyOp11
 70
     0
102
RTVSPropertyOp12
 70
     0
102
RTVSPropertyOp13
 70
     0
102
RTVSPropertyOp14
 70
     2
102
RTVSPropertyOp15
 70
     0
102
RTVSPropertyOp16
 70
     0
102
RTVSPropertyOp17
 70
     0
102
RTVSPropertyOp18
 70
     0
102
RTVSPropertyOp19
 70
     0
102
RTVSPropertyOp20
 70
     0
102
RTVSPropertyOp21
 70
     0
102
RTVSPropertyOp22
 70
     0
102
RTVSPropertyOp23
 70
     0
102
RTVSPropertyOp24
 70
     0
102
RTVSPropertyOp25
 70
     0
102
RTVSPropertyOp26
 70
     0
102
RTVSPropertyOp27
 70
     0
102
RTVSPropertyOp28
 70
     1
102
RTVSPropertyOp29
 70
     1
102
RTVSPropertyOp30
 70
     1
102
RTVSPropertyOp31
 70
     1
102
RTVSPropertyOp32
 70
     1
  0
XRECORD
  5
FF02
102
{ACAD_REACTORS
330
FF01
102
}
330
FF01
100
AcDbXrecord
280
     1
102
RTVSPropertyOp0
 70
     1
102
RTVSPropertyOp1
 70
     1
102
RTVSPropertyOp2
 70
     1
102
RTVSPropertyOp3
 70
     1
102
RTVSPropertyOp4
 70
     1
102
RTVSPropertyOp5
 70
     1
102
RTVSPropertyOp6
 70
     1
102
RTVSPropertyOp7
 70
     1
102
RTVSPropertyOp8
 70
     1
102
RTVSPropertyOp9
 70
     1
102
RTVSPropertyOp10
 70
     1
102
RTVSPropertyOp11
 70
     1
102
RTVSPropertyOp12
 70
     1
102
RTVSPropertyOp13
 70
     1
102
RTVSPropertyOp14
 70
     1
102
RTVSPropertyOp15
 70
     1
102
RTVSPropertyOp16
 70
     1
102
RTVSPropertyOp17
 70
     1
102
RTVSPropertyOp18
 70
     1
102
RTVSPropertyOp19
 70
     1
102
RTVSPropertyOp20
 70
     1
102
RTVSPropertyOp21
 70
     1
102
RTVSPropertyOp22
 70
     1
102
RTVSPropertyOp23
 70
     1
102
RTVSPropertyOp24
 70
     1
102
RTVSPropertyOp25
 70
     1
102
RTVSPropertyOp26
 70
     1
102
RTVSPropertyOp27
 70
     1
102
RTVSPropertyOp28
 70
     1
102
RTVSPropertyOp29
 70
     1
102
RTVSPropertyOp30
 70
     1
102
RTVSPropertyOp31
 70
     1
102
RTVSPropertyOp32
 70
     1
  0
XRECORD
  5
FF19
102
{ACAD_REACTORS
330
FF18
102
}
330
FF18
100
AcDbXrecord
280
     1
102
RTVSPropertyOp0
 70
     0
102
RTVSPropertyOp1
 70
     0
102
RTVSPropertyOp2
 70
     0
102
RTVSPropertyOp3
 70
     0
102
RTVSPropertyOp4
 70
     0
102
RTVSPropertyOp5
 70
     0
102
RTVSPropertyOp6
 70
     0
102
RTVSPropertyOp7
 70
     0
102
RTVSPropertyOp8
 70
     0
102
RTVSPropertyOp9
 70
     0
102
RTVSPropertyOp10
 70
     0
102
RTVSPropertyOp11
 70
     0
102
RTVSPropertyOp12
 70
     0
102
RTVSPropertyOp13
 70
     0
102
RTVSPropertyOp14
 70
     2
102
RTVSPropertyOp15
 70
     0
102
RTVSPropertyOp16
 70
     0
102
RTVSPropertyOp17
 70
     0
102
RTVSPropertyOp18
 70
     0
102
RTVSPropertyOp19
 70
     0
102
RTVSPropertyOp20
 70
     0
102
RTVSPropertyOp21
 70
     0
102
RTVSPropertyOp22
 70
     0
102
RTVSPropertyOp23
 70
     0
102
RTVSPropertyOp24
 70
     0
102
RTVSPropertyOp25
 70
     0
102
RTVSPropertyOp26
 70
     0
102
RTVSPropertyOp27
 70
     0
102
RTVSPropertyOp28
 70
     1
102
RTVSPropertyOp29
 70
     1
102
RTVSPropertyOp30
 70
     1
102
RTVSPropertyOp31
 70
     1
102
RTVSPropertyOp32
 70
     1
  0
XRECORD
  5
FEFA
102
{ACAD_REACTORS
330
FEF9
102
}
330
FEF9
100
AcDbXrecord
280
     1
102
RTVSPropertyOp0
 70
     1
102
RTVSPropertyOp1
 70
     1
102
RTVSPropertyOp2
 70
     1
102
RTVSPropertyOp3
 70
     1
102
RTVSPropertyOp4
 70
     1
102
RTVSPropertyOp5
 70
     1
102
RTVSPropertyOp6
 70
     1
102
RTVSPropertyOp7
 70
     1
102
RTVSPropertyOp8
 70
     1
102
RTVSPropertyOp9
 70
     1
102
RTVSPropertyOp10
 70
     1
102
RTVSPropertyOp11
 70
     1
102
RTVSPropertyOp12
 70
     1
102
RTVSPropertyOp13
 70
     1
102
RTVSPropertyOp14
 70
     1
102
RTVSPropertyOp15
 70
     1
102
RTVSPropertyOp16
 70
     1
102
RTVSPropertyOp17
 70
     1
102
RTVSPropertyOp18
 70
     1
102
RTVSPropertyOp19
 70
     1
102
RTVSPropertyOp20
 70
     1
102
RTVSPropertyOp21
 70
     1
102
RTVSPropertyOp22
 70
     1
102
RTVSPropertyOp23
 70
     1
102
RTVSPropertyOp24
 70
     1
102
RTVSPropertyOp25
 70
     1
102
RTVSPropertyOp26
 70
     1
102
RTVSPropertyOp27
 70
     1
102
RTVSPropertyOp28
 70
     1
102
RTVSPropertyOp29
 70
     1
102
RTVSPropertyOp30
 70
     1
102
RTVSPropertyOp31
 70
     1
102
RTVSPropertyOp32
 70
     1
  0
XRECORD
  5
FF15
102
{ACAD_REACTORS
330
FF14
102
}
330
FF14
100
AcDbXrecord
280
     1
102
RTVSPropertyOp0
 70
     1
102
RTVSPropertyOp1
 70
     1
102
RTVSPropertyOp2
 70
     1
102
RTVSPropertyOp3
 70
     1
102
RTVSPropertyOp4
 70
     1
102
RTVSPropertyOp5
 70
     1
102
RTVSPropertyOp6
 70
     1
102
RTVSPropertyOp7
 70
     1
102
RTVSPropertyOp8
 70
     1
102
RTVSPropertyOp9
 70
     1
102
RTVSPropertyOp10
 70
     1
102
RTVSPropertyOp11
 70
     1
102
RTVSPropertyOp12
 70
     1
102
RTVSPropertyOp13
 70
     1
102
RTVSPropertyOp14
 70
     1
102
RTVSPropertyOp15
 70
     1
102
RTVSPropertyOp16
 70
     1
102
RTVSPropertyOp17
 70
     1
102
RTVSPropertyOp18
 70
     1
102
RTVSPropertyOp19
 70
     1
102
RTVSPropertyOp20
 70
     1
102
RTVSPropertyOp21
 70
     1
102
RTVSPropertyOp22
 70
     1
102
RTVSPropertyOp23
 70
     1
102
RTVSPropertyOp24
 70
     1
102
RTVSPropertyOp25
 70
     1
102
RTVSPropertyOp26
 70
     1
102
RTVSPropertyOp27
 70
     1
102
RTVSPropertyOp28
 70
     1
102
RTVSPropertyOp29
 70
     1
102
RTVSPropertyOp30
 70
     1
102
RTVSPropertyOp31
 70
     1
102
RTVSPropertyOp32
 70
     1
  0
XRECORD
  5
FF13
102
{ACAD_REACTORS
330
FF12
102
}
330
FF12
100
AcDbXrecord
280
     1
102
RTVSPropertyOp0
 70
     1
102
RTVSPropertyOp1
 70
     1
102
RTVSPropertyOp2
 70
     1
102
RTVSPropertyOp3
 70
     1
102
RTVSPropertyOp4
 70
     1
102
RTVSPropertyOp5
 70
     1
102
RTVSPropertyOp6
 70
     1
102
RTVSPropertyOp7
 70
     1
102
RTVSPropertyOp8
 70
     1
102
RTVSPropertyOp9
 70
     1
102
RTVSPropertyOp10
 70
     1
102
RTVSPropertyOp11
 70
     1
102
RTVSPropertyOp12
 70
     1
102
RTVSPropertyOp13
 70
     1
102
RTVSPropertyOp14
 70
     1
102
RTVSPropertyOp15
 70
     1
102
RTVSPropertyOp16
 70
     1
102
RTVSPropertyOp17
 70
     1
102
RTVSPropertyOp18
 70
     1
102
RTVSPropertyOp19
 70
     1
102
RTVSPropertyOp20
 70
     1
102
RTVSPropertyOp21
 70
     1
102
RTVSPropertyOp22
 70
     1
102
RTVSPropertyOp23
 70
     1
102
RTVSPropertyOp24
 70
     1
102
RTVSPropertyOp25
 70
     1
102
RTVSPropertyOp26
 70
     1
102
RTVSPropertyOp27
 70
     1
102
RTVSPropertyOp28
 70
     1
102
RTVSPropertyOp29
 70
     1
102
RTVSPropertyOp30
 70
     1
102
RTVSPropertyOp31
 70
     1
102
RTVSPropertyOp32
 70
     1
  0
XRECORD
  5
FF0D
102
{ACAD_REACTORS
330
FF0C
102
}
330
FF0C
100
AcDbXrecord
280
     1
102
RTVSPropertyOp0
 70
     1
102
RTVSPropertyOp1
 70
     1
102
RTVSPropertyOp2
 70
     1
102
RTVSPropertyOp3
 70
     1
102
RTVSPropertyOp4
 70
     1
102
RTVSPropertyOp5
 70
     1
102
RTVSPropertyOp6
 70
     1
102
RTVSPropertyOp7
 70
     1
102
RTVSPropertyOp8
 70
     1
102
RTVSPropertyOp9
 70
     1
102
RTVSPropertyOp10
 70
     1
102
RTVSPropertyOp11
 70
     1
102
RTVSPropertyOp12
 70
     1
102
RTVSPropertyOp13
 70
     1
102
RTVSPropertyOp14
 70
     1
102
RTVSPropertyOp15
 70
     1
102
RTVSPropertyOp16
 70
     1
102
RTVSPropertyOp17
 70
     1
102
RTVSPropertyOp18
 70
     1
102
RTVSPropertyOp19
 70
     1
102
RTVSPropertyOp20
 70
     1
102
RTVSPropertyOp21
 70
     1
102
RTVSPropertyOp22
 70
     1
102
RTVSPropertyOp23
 70
     1
102
RTVSPropertyOp24
 70
     1
102
RTVSPropertyOp25
 70
     1
102
RTVSPropertyOp26
 70
     1
102
RTVSPropertyOp27
 70
     1
102
RTVSPropertyOp28
 70
     1
102
RTVSPropertyOp29
 70
     1
102
RTVSPropertyOp30
 70
     1
102
RTVSPropertyOp31
 70
     1
102
RTVSPropertyOp32
 70
     1
  0
XRECORD
  5
FF0F
102
{ACAD_REACTORS
330
FF0E
102
}
330
FF0E
100
AcDbXrecord
280
     1
102
RTVSPropertyOp0
 70
     1
102
RTVSPropertyOp1
 70
     1
102
RTVSPropertyOp2
 70
     1
102
RTVSPropertyOp3
 70
     1
102
RTVSPropertyOp4
 70
     1
102
RTVSPropertyOp5
 70
     1
102
RTVSPropertyOp6
 70
     1
102
RTVSPropertyOp7
 70
     1
102
RTVSPropertyOp8
 70
     1
102
RTVSPropertyOp9
 70
     1
102
RTVSPropertyOp10
 70
     1
102
RTVSPropertyOp11
 70
     1
102
RTVSPropertyOp12
 70
     1
102
RTVSPropertyOp13
 70
     1
102
RTVSPropertyOp14
 70
     1
102
RTVSPropertyOp15
 70
     1
102
RTVSPropertyOp16
 70
     1
102
RTVSPropertyOp17
 70
     1
102
RTVSPropertyOp18
 70
     1
102
RTVSPropertyOp19
 70
     1
102
RTVSPropertyOp20
 70
     1
102
RTVSPropertyOp21
 70
     1
102
RTVSPropertyOp22
 70
     1
102
RTVSPropertyOp23
 70
     1
102
RTVSPropertyOp24
 70
     1
102
RTVSPropertyOp25
 70
     1
102
RTVSPropertyOp26
 70
     1
102
RTVSPropertyOp27
 70
     1
102
RTVSPropertyOp28
 70
     1
102
RTVSPropertyOp29
 70
     1
102
RTVSPropertyOp30
 70
     1
102
RTVSPropertyOp31
 70
     1
102
RTVSPropertyOp32
 70
     1
  0
XRECORD
  5
FF00
102
{ACAD_REACTORS
330
FEFF
102
}
330
FEFF
100
AcDbXrecord
280
     1
102
RTVSPropertyOp0
 70
     1
102
RTVSPropertyOp1
 70
     1
102
RTVSPropertyOp2
 70
     1
102
RTVSPropertyOp3
 70
     1
102
RTVSPropertyOp4
 70
     1
102
RTVSPropertyOp5
 70
     1
102
RTVSPropertyOp6
 70
     1
102
RTVSPropertyOp7
 70
     1
102
RTVSPropertyOp8
 70
     1
102
RTVSPropertyOp9
 70
     1
102
RTVSPropertyOp10
 70
     1
102
RTVSPropertyOp11
 70
     1
102
RTVSPropertyOp12
 70
     1
102
RTVSPropertyOp13
 70
     1
102
RTVSPropertyOp14
 70
     1
102
RTVSPropertyOp15
 70
     1
102
RTVSPropertyOp16
 70
     1
102
RTVSPropertyOp17
 70
     1
102
RTVSPropertyOp18
 70
     1
102
RTVSPropertyOp19
 70
     1
102
RTVSPropertyOp20
 70
     1
102
RTVSPropertyOp21
 70
     1
102
RTVSPropertyOp22
 70
     1
102
RTVSPropertyOp23
 70
     1
102
RTVSPropertyOp24
 70
     1
102
RTVSPropertyOp25
 70
     1
102
RTVSPropertyOp26
 70
     1
102
RTVSPropertyOp27
 70
     1
102
RTVSPropertyOp28
 70
     1
102
RTVSPropertyOp29
 70
     1
102
RTVSPropertyOp30
 70
     1
102
RTVSPropertyOp31
 70
     1
102
RTVSPropertyOp32
 70
     1
  0
XRECORD
  5
FF09
102
{ACAD_REACTORS
330
FF08
102
}
330
FF08
100
AcDbXrecord
280
     1
102
RTVSPropertyOp0
 70
     1
102
RTVSPropertyOp1
 70
     1
102
RTVSPropertyOp2
 70
     1
102
RTVSPropertyOp3
 70
     1
102
RTVSPropertyOp4
 70
     1
102
RTVSPropertyOp5
 70
     1
102
RTVSPropertyOp6
 70
     1
102
RTVSPropertyOp7
 70
     1
102
RTVSPropertyOp8
 70
     1
102
RTVSPropertyOp9
 70
     1
102
RTVSPropertyOp10
 70
     1
102
RTVSPropertyOp11
 70
     1
102
RTVSPropertyOp12
 70
     1
102
RTVSPropertyOp13
 70
     1
102
RTVSPropertyOp14
 70
     1
102
RTVSPropertyOp15
 70
     1
102
RTVSPropertyOp16
 70
     1
102
RTVSPropertyOp17
 70
     1
102
RTVSPropertyOp18
 70
     1
102
RTVSPropertyOp19
 70
     1
102
RTVSPropertyOp20
 70
     1
102
RTVSPropertyOp21
 70
     1
102
RTVSPropertyOp22
 70
     1
102
RTVSPropertyOp23
 70
     1
102
RTVSPropertyOp24
 70
     1
102
RTVSPropertyOp25
 70
     1
102
RTVSPropertyOp26
 70
     1
102
RTVSPropertyOp27
 70
     1
102
RTVSPropertyOp28
 70
     1
102
RTVSPropertyOp29
 70
     1
102
RTVSPropertyOp30
 70
     1
102
RTVSPropertyOp31
 70
     1
102
RTVSPropertyOp32
 70
     1
  0
XRECORD
  5
FF11
102
{ACAD_REACTORS
330
FF10
102
}
330
FF10
100
AcDbXrecord
280
     1
102
RTVSPropertyOp0
 70
     1
102
RTVSPropertyOp1
 70
     1
102
RTVSPropertyOp2
 70
     1
102
RTVSPropertyOp3
 70
     1
102
RTVSPropertyOp4
 70
     1
102
RTVSPropertyOp5
 70
     1
102
RTVSPropertyOp6
 70
     1
102
RTVSPropertyOp7
 70
     1
102
RTVSPropertyOp8
 70
     1
102
RTVSPropertyOp9
 70
     1
102
RTVSPropertyOp10
 70
     1
102
RTVSPropertyOp11
 70
     1
102
RTVSPropertyOp12
 70
     1
102
RTVSPropertyOp13
 70
     1
102
RTVSPropertyOp14
 70
     1
102
RTVSPropertyOp15
 70
     1
102
RTVSPropertyOp16
 70
     1
102
RTVSPropertyOp17
 70
     1
102
RTVSPropertyOp18
 70
     1
102
RTVSPropertyOp19
 70
     1
102
RTVSPropertyOp20
 70
     1
102
RTVSPropertyOp21
 70
     1
102
RTVSPropertyOp22
 70
     1
102
RTVSPropertyOp23
 70
     1
102
RTVSPropertyOp24
 70
     1
102
RTVSPropertyOp25
 70
     1
102
RTVSPropertyOp26
 70
     1
102
RTVSPropertyOp27
 70
     1
102
RTVSPropertyOp28
 70
     1
102
RTVSPropertyOp29
 70
     1
102
RTVSPropertyOp30
 70
     1
102
RTVSPropertyOp31
 70
     1
102
RTVSPropertyOp32
 70
     1
  0
ENDSEC
  0
EOF
