ISO-10303-21;
HEADER;
/* Generated by software containing ST-Developer
 * from STEP Tools, Inc. (www.steptools.com) 
 */

FILE_DESCRIPTION(
/* description */ (''),
/* implementation_level */ '2;1');

FILE_NAME(
/* name */ 
'I:\\Gleitlager\\Konstruktion\\K\X\F6ching\\Projekte\\DLE-DR-xxxx\\Arb
eitsraum\\Arbeitsraum - DLE-DR-0001-0049.stp',
/* time_stamp */ '2019-04-16T10:52:42+02:00',
/* author */ ('fkoeching'),
/* organization */ (''),
/* preprocessor_version */ 'ST-DEVELOPER v17',
/* originating_system */ 'Autodesk Inventor 2018',
/* authorisation */ '');

FILE_SCHEMA (('AUTOMOTIVE_DESIGN { 1 0 10303 214 3 1 1 }'));
ENDSEC;

DATA;
#10=MECHANICAL_DESIGN_GEOMETRIC_PRESENTATION_REPRESENTATION('',(#13),#217);
#11=SHAPE_REPRESENTATION_RELATIONSHIP('SRR','None',#224,#12);
#12=ADVANCED_BREP_SHAPE_REPRESENTATION('',(#14),#216);
#13=STYLED_ITEM('',(#233),#14);
#14=MANIFOLD_SOLID_BREP('Volumenk\X\F6rper1',#109);
#15=LINE('',#194,#19);
#16=LINE('',#200,#20);
#17=LINE('',#206,#21);
#18=LINE('',#212,#22);
#19=VECTOR('',#159,70.25);
#20=VECTOR('',#166,159.);
#21=VECTOR('',#173,151.25);
#22=VECTOR('',#180,63.75);
#23=CONICAL_SURFACE('',#132,70.25,1.28374628345226);
#24=CONICAL_SURFACE('',#135,159.,0.876058050598193);
#25=CONICAL_SURFACE('',#138,151.25,1.48405798811891);
#26=CONICAL_SURFACE('',#141,63.75,1.24267643177959);
#27=FACE_OUTER_BOUND('',#33,.T.);
#28=FACE_OUTER_BOUND('',#34,.T.);
#29=FACE_OUTER_BOUND('',#35,.T.);
#30=FACE_OUTER_BOUND('',#36,.T.);
#31=FACE_OUTER_BOUND('',#37,.T.);
#32=FACE_OUTER_BOUND('',#38,.T.);
#33=EDGE_LOOP('',(#73,#74));
#34=EDGE_LOOP('',(#75,#76,#77,#78,#79,#80));
#35=EDGE_LOOP('',(#81,#82,#83,#84,#85,#86));
#36=EDGE_LOOP('',(#87,#88,#89,#90,#91,#92));
#37=EDGE_LOOP('',(#93,#94,#95,#96,#97,#98));
#38=EDGE_LOOP('',(#99,#100));
#39=CIRCLE('',#130,2.5);
#40=CIRCLE('',#131,2.5);
#41=CIRCLE('',#133,138.);
#42=CIRCLE('',#134,138.);
#43=CIRCLE('',#136,180.);
#44=CIRCLE('',#137,180.);
#45=CIRCLE('',#139,122.5);
#46=CIRCLE('',#140,122.5);
#47=CIRCLE('',#142,5.);
#48=CIRCLE('',#143,5.);
#49=VERTEX_POINT('',#185);
#50=VERTEX_POINT('',#186);
#51=VERTEX_POINT('',#190);
#52=VERTEX_POINT('',#191);
#53=VERTEX_POINT('',#196);
#54=VERTEX_POINT('',#197);
#55=VERTEX_POINT('',#202);
#56=VERTEX_POINT('',#203);
#57=VERTEX_POINT('',#208);
#58=VERTEX_POINT('',#209);
#59=EDGE_CURVE('',#49,#50,#39,.T.);
#60=EDGE_CURVE('',#50,#49,#40,.T.);
#61=EDGE_CURVE('',#51,#52,#41,.T.);
#62=EDGE_CURVE('',#52,#51,#42,.T.);
#63=EDGE_CURVE('',#52,#50,#15,.T.);
#64=EDGE_CURVE('',#53,#54,#43,.T.);
#65=EDGE_CURVE('',#54,#53,#44,.T.);
#66=EDGE_CURVE('',#54,#52,#16,.T.);
#67=EDGE_CURVE('',#55,#56,#45,.T.);
#68=EDGE_CURVE('',#56,#55,#46,.T.);
#69=EDGE_CURVE('',#56,#54,#17,.T.);
#70=EDGE_CURVE('',#57,#58,#47,.T.);
#71=EDGE_CURVE('',#58,#57,#48,.T.);
#72=EDGE_CURVE('',#58,#56,#18,.T.);
#73=ORIENTED_EDGE('',*,*,#59,.F.);
#74=ORIENTED_EDGE('',*,*,#60,.F.);
#75=ORIENTED_EDGE('',*,*,#61,.F.);
#76=ORIENTED_EDGE('',*,*,#62,.F.);
#77=ORIENTED_EDGE('',*,*,#63,.T.);
#78=ORIENTED_EDGE('',*,*,#60,.T.);
#79=ORIENTED_EDGE('',*,*,#59,.T.);
#80=ORIENTED_EDGE('',*,*,#63,.F.);
#81=ORIENTED_EDGE('',*,*,#64,.F.);
#82=ORIENTED_EDGE('',*,*,#65,.F.);
#83=ORIENTED_EDGE('',*,*,#66,.T.);
#84=ORIENTED_EDGE('',*,*,#62,.T.);
#85=ORIENTED_EDGE('',*,*,#61,.T.);
#86=ORIENTED_EDGE('',*,*,#66,.F.);
#87=ORIENTED_EDGE('',*,*,#67,.F.);
#88=ORIENTED_EDGE('',*,*,#68,.F.);
#89=ORIENTED_EDGE('',*,*,#69,.T.);
#90=ORIENTED_EDGE('',*,*,#65,.T.);
#91=ORIENTED_EDGE('',*,*,#64,.T.);
#92=ORIENTED_EDGE('',*,*,#69,.F.);
#93=ORIENTED_EDGE('',*,*,#70,.F.);
#94=ORIENTED_EDGE('',*,*,#71,.F.);
#95=ORIENTED_EDGE('',*,*,#72,.T.);
#96=ORIENTED_EDGE('',*,*,#68,.T.);
#97=ORIENTED_EDGE('',*,*,#67,.T.);
#98=ORIENTED_EDGE('',*,*,#72,.F.);
#99=ORIENTED_EDGE('',*,*,#70,.T.);
#100=ORIENTED_EDGE('',*,*,#71,.T.);
#101=PLANE('',#129);
#102=PLANE('',#144);
#103=ADVANCED_FACE('',(#27),#101,.T.);
#104=ADVANCED_FACE('',(#28),#23,.T.);
#105=ADVANCED_FACE('',(#29),#24,.T.);
#106=ADVANCED_FACE('',(#30),#25,.T.);
#107=ADVANCED_FACE('',(#31),#26,.T.);
#108=ADVANCED_FACE('',(#32),#102,.T.);
#109=CLOSED_SHELL('',(#103,#104,#105,#106,#107,#108));
#110=DERIVED_UNIT_ELEMENT(#112,1.);
#111=DERIVED_UNIT_ELEMENT(#219,3.);
#112=(
MASS_UNIT()
NAMED_UNIT(*)
SI_UNIT($,.GRAM.)
);
#113=DERIVED_UNIT((#110,#111));
#114=MEASURE_REPRESENTATION_ITEM('density measure',
POSITIVE_RATIO_MEASURE(1.),#113);
#115=PROPERTY_DEFINITION_REPRESENTATION(#120,#117);
#116=PROPERTY_DEFINITION_REPRESENTATION(#121,#118);
#117=REPRESENTATION('material name',(#119),#216);
#118=REPRESENTATION('density',(#114),#216);
#119=DESCRIPTIVE_REPRESENTATION_ITEM('Generisch','Generisch');
#120=PROPERTY_DEFINITION('material property','material name',#226);
#121=PROPERTY_DEFINITION('material property','density of part',#226);
#122=DATE_TIME_ROLE('creation_date');
#123=APPLIED_DATE_AND_TIME_ASSIGNMENT(#124,#122,(#226));
#124=DATE_AND_TIME(#125,#126);
#125=CALENDAR_DATE(2019,14,1);
#126=LOCAL_TIME(9,7,33.,#127);
#127=COORDINATED_UNIVERSAL_TIME_OFFSET(0,0,.BEHIND.);
#128=AXIS2_PLACEMENT_3D('placement',#183,#145,#146);
#129=AXIS2_PLACEMENT_3D('',#184,#147,#148);
#130=AXIS2_PLACEMENT_3D('',#187,#149,#150);
#131=AXIS2_PLACEMENT_3D('',#188,#151,#152);
#132=AXIS2_PLACEMENT_3D('',#189,#153,#154);
#133=AXIS2_PLACEMENT_3D('',#192,#155,#156);
#134=AXIS2_PLACEMENT_3D('',#193,#157,#158);
#135=AXIS2_PLACEMENT_3D('',#195,#160,#161);
#136=AXIS2_PLACEMENT_3D('',#198,#162,#163);
#137=AXIS2_PLACEMENT_3D('',#199,#164,#165);
#138=AXIS2_PLACEMENT_3D('',#201,#167,#168);
#139=AXIS2_PLACEMENT_3D('',#204,#169,#170);
#140=AXIS2_PLACEMENT_3D('',#205,#171,#172);
#141=AXIS2_PLACEMENT_3D('',#207,#174,#175);
#142=AXIS2_PLACEMENT_3D('',#210,#176,#177);
#143=AXIS2_PLACEMENT_3D('',#211,#178,#179);
#144=AXIS2_PLACEMENT_3D('',#213,#181,#182);
#145=DIRECTION('axis',(0.,0.,1.));
#146=DIRECTION('refdir',(1.,0.,0.));
#147=DIRECTION('center_axis',(0.,-1.,0.));
#148=DIRECTION('ref_axis',(0.,0.,-1.));
#149=DIRECTION('center_axis',(0.,1.,0.));
#150=DIRECTION('ref_axis',(1.,0.,0.));
#151=DIRECTION('center_axis',(0.,1.,0.));
#152=DIRECTION('ref_axis',(1.,0.,0.));
#153=DIRECTION('center_axis',(0.,1.,0.));
#154=DIRECTION('ref_axis',(-1.,0.,0.));
#155=DIRECTION('center_axis',(0.,1.,0.));
#156=DIRECTION('ref_axis',(1.,0.,0.));
#157=DIRECTION('center_axis',(0.,1.,0.));
#158=DIRECTION('ref_axis',(1.,0.,0.));
#159=DIRECTION('',(-0.959083251526255,-0.283124207092621,1.17453823409746E-16));
#160=DIRECTION('center_axis',(0.,1.,0.));
#161=DIRECTION('ref_axis',(-1.,0.,0.));
#162=DIRECTION('center_axis',(0.,1.,0.));
#163=DIRECTION('ref_axis',(1.,0.,0.));
#164=DIRECTION('center_axis',(0.,1.,0.));
#165=DIRECTION('ref_axis',(1.,0.,0.));
#166=DIRECTION('',(-0.768221279597376,-0.64018439966448,9.4079973109581E-17));
#167=DIRECTION('center_axis',(0.,-1.,0.));
#168=DIRECTION('ref_axis',(-1.,0.,0.));
#169=DIRECTION('center_axis',(0.,1.,0.));
#170=DIRECTION('ref_axis',(1.,0.,0.));
#171=DIRECTION('center_axis',(0.,1.,0.));
#172=DIRECTION('ref_axis',(1.,0.,0.));
#173=DIRECTION('',(0.996240588195683,-0.086629616364842,-1.22004284751452E-16));
#174=DIRECTION('center_axis',(0.,-1.,0.));
#175=DIRECTION('ref_axis',(-1.,0.,0.));
#176=DIRECTION('center_axis',(0.,1.,0.));
#177=DIRECTION('ref_axis',(1.,0.,0.));
#178=DIRECTION('center_axis',(0.,1.,0.));
#179=DIRECTION('ref_axis',(1.,0.,0.));
#180=DIRECTION('',(0.946649906050144,-0.322263797804304,-1.15931177735745E-16));
#181=DIRECTION('center_axis',(0.,1.,0.));
#182=DIRECTION('ref_axis',(0.,0.,1.));
#183=CARTESIAN_POINT('',(0.,0.,0.));
#184=CARTESIAN_POINT('Origin',(-2.5,-3.06161699786838E-16,0.));
#185=CARTESIAN_POINT('',(-2.5,-3.06161699786838E-16,0.));
#186=CARTESIAN_POINT('',(2.5,-1.33226762955019E-14,-3.06161699786839E-16));
#187=CARTESIAN_POINT('Origin',(0.,0.,0.));
#188=CARTESIAN_POINT('Origin',(0.,0.,0.));
#189=CARTESIAN_POINT('Origin',(0.,20.,0.));
#190=CARTESIAN_POINT('',(-138.,40.,0.));
#191=CARTESIAN_POINT('',(138.,40.,-1.69001258282335E-14));
#192=CARTESIAN_POINT('Origin',(0.,40.,0.));
#193=CARTESIAN_POINT('Origin',(0.,40.,0.));
#194=CARTESIAN_POINT('',(70.25,20.,-8.60314376401016E-15));
#195=CARTESIAN_POINT('Origin',(0.,57.5,0.));
#196=CARTESIAN_POINT('',(-180.,75.,0.));
#197=CARTESIAN_POINT('',(180.,75.,-2.20436423846524E-14));
#198=CARTESIAN_POINT('Origin',(0.,75.,0.));
#199=CARTESIAN_POINT('Origin',(0.,75.,0.));
#200=CARTESIAN_POINT('',(159.,57.5,-1.94718841064429E-14));
#201=CARTESIAN_POINT('Origin',(0.,77.5,0.));
#202=CARTESIAN_POINT('',(-122.5,80.,0.));
#203=CARTESIAN_POINT('',(122.5,80.,-1.50019232895551E-14));
#204=CARTESIAN_POINT('Origin',(0.,80.,0.));
#205=CARTESIAN_POINT('Origin',(0.,80.,0.));
#206=CARTESIAN_POINT('',(151.25,77.5,-1.85227828371037E-14));
#207=CARTESIAN_POINT('Origin',(0.,100.,0.));
#208=CARTESIAN_POINT('',(-5.,120.,0.));
#209=CARTESIAN_POINT('',(5.,120.,-6.12323399573677E-16));
#210=CARTESIAN_POINT('Origin',(0.,120.,0.));
#211=CARTESIAN_POINT('Origin',(0.,120.,0.));
#212=CARTESIAN_POINT('',(63.75,100.,-7.80712334456438E-15));
#213=CARTESIAN_POINT('Origin',(0.,120.,0.));
#214=UNCERTAINTY_MEASURE_WITH_UNIT(LENGTH_MEASURE(0.01),#218,
'DISTANCE_ACCURACY_VALUE',
'Maximum model space distance between geometric entities at asserted c
onnectivities');
#215=UNCERTAINTY_MEASURE_WITH_UNIT(LENGTH_MEASURE(0.01),#218,
'DISTANCE_ACCURACY_VALUE',
'Maximum model space distance between geometric entities at asserted c
onnectivities');
#216=(
GEOMETRIC_REPRESENTATION_CONTEXT(3)
GLOBAL_UNCERTAINTY_ASSIGNED_CONTEXT((#214))
GLOBAL_UNIT_ASSIGNED_CONTEXT((#218,#221,#220))
REPRESENTATION_CONTEXT('','3D')
);
#217=(
GEOMETRIC_REPRESENTATION_CONTEXT(3)
GLOBAL_UNCERTAINTY_ASSIGNED_CONTEXT((#215))
GLOBAL_UNIT_ASSIGNED_CONTEXT((#218,#221,#220))
REPRESENTATION_CONTEXT('','3D')
);
#218=(
LENGTH_UNIT()
NAMED_UNIT(*)
SI_UNIT(.MILLI.,.METRE.)
);
#219=(
LENGTH_UNIT()
NAMED_UNIT(*)
SI_UNIT(.CENTI.,.METRE.)
);
#220=(
NAMED_UNIT(*)
SI_UNIT($,.STERADIAN.)
SOLID_ANGLE_UNIT()
);
#221=(
NAMED_UNIT(*)
PLANE_ANGLE_UNIT()
SI_UNIT($,.RADIAN.)
);
#222=SHAPE_DEFINITION_REPRESENTATION(#223,#224);
#223=PRODUCT_DEFINITION_SHAPE('',$,#226);
#224=SHAPE_REPRESENTATION('',(#128),#216);
#225=PRODUCT_DEFINITION_CONTEXT('part definition',#230,'design');
#226=PRODUCT_DEFINITION('Arbeitsraum - DLE-DR-0001-0049',
'Arbeitsraum - DLE-DR-0001-0049',#227,#225);
#227=PRODUCT_DEFINITION_FORMATION('',$,#232);
#228=PRODUCT_RELATED_PRODUCT_CATEGORY('Arbeitsraum - DLE-DR-0001-0049',
'Arbeitsraum - DLE-DR-0001-0049',(#232));
#229=APPLICATION_PROTOCOL_DEFINITION('international standard',
'automotive_design',2009,#230);
#230=APPLICATION_CONTEXT(
'Core Data for Automotive Mechanical Design Process');
#231=PRODUCT_CONTEXT('part definition',#230,'mechanical');
#232=PRODUCT('Arbeitsraum - DLE-DR-0001-0049',
'Arbeitsraum - DLE-DR-0001-0049',$,(#231));
#233=PRESENTATION_STYLE_ASSIGNMENT((#234));
#234=SURFACE_STYLE_USAGE(.BOTH.,#235);
#235=SURFACE_SIDE_STYLE('',(#236));
#236=SURFACE_STYLE_FILL_AREA(#237);
#237=FILL_AREA_STYLE('',(#238));
#238=FILL_AREA_STYLE_COLOUR('',#239);
#239=COLOUR_RGB('',0.749019607843137,0.749019607843137,0.749019607843137);
ENDSEC;
END-ISO-10303-21;
