ISO-10303-21;
HEADER;
/* Generated by software containing ST-Developer
 * from STEP Tools, Inc. (www.steptools.com) 
 */

FILE_DESCRIPTION(
/* description */ (''),
/* implementation_level */ '2;1');

FILE_NAME(
/* name */ 
'I:\\Gleitlager\\Konstruktion\\K\X\F6ching\\Projekte\\DLE-DR-xxxx\\Arb
eitsraum\\Arbeitsraum - DLE-DR-0050-0100.stp',
/* time_stamp */ '2019-04-16T10:53:14+02:00',
/* author */ ('fkoeching'),
/* organization */ (''),
/* preprocessor_version */ 'ST-DEVELOPER v17',
/* originating_system */ 'Autodesk Inventor 2018',
/* authorisation */ '');

FILE_SCHEMA (('AUTOMOTIVE_DESIGN { 1 0 10303 214 3 1 1 }'));
ENDSEC;

DATA;
#10=MECHANICAL_DESIGN_GEOMETRIC_PRESENTATION_REPRESENTATION('',(#13),#270);
#11=SHAPE_REPRESENTATION_RELATIONSHIP('SRR','None',#277,#12);
#12=ADVANCED_BREP_SHAPE_REPRESENTATION('',(#14),#269);
#13=STYLED_ITEM('',(#286),#14);
#14=MANIFOLD_SOLID_BREP('Volumenk\X\F6rper1',#140);
#15=FACE_OUTER_BOUND('',#22,.T.);
#16=FACE_OUTER_BOUND('',#23,.T.);
#17=FACE_OUTER_BOUND('',#24,.T.);
#18=FACE_OUTER_BOUND('',#25,.T.);
#19=FACE_OUTER_BOUND('',#26,.T.);
#20=FACE_OUTER_BOUND('',#27,.T.);
#21=FACE_OUTER_BOUND('',#28,.T.);
#22=EDGE_LOOP('',(#88,#89,#90,#91));
#23=EDGE_LOOP('',(#92,#93,#94,#95,#96,#97));
#24=EDGE_LOOP('',(#98,#99,#100,#101,#102,#103));
#25=EDGE_LOOP('',(#104,#105,#106,#107,#108,#109));
#26=EDGE_LOOP('',(#110,#111,#112,#113,#114,#115));
#27=EDGE_LOOP('',(#116,#117,#118,#119,#120,#121));
#28=EDGE_LOOP('',(#122,#123,#124,#125));
#29=LINE('',#233,#36);
#30=LINE('',#239,#37);
#31=LINE('',#245,#38);
#32=LINE('',#251,#39);
#33=LINE('',#257,#40);
#34=LINE('',#263,#41);
#35=LINE('',#266,#42);
#36=VECTOR('',#187,40.);
#37=VECTOR('',#194,117.5);
#38=VECTOR('',#201,194.);
#39=VECTOR('',#208,284.5);
#40=VECTOR('',#215,295.);
#41=VECTOR('',#222,215.5);
#42=VECTOR('',#225,177.);
#43=CIRCLE('',#161,80.);
#44=CIRCLE('',#162,80.);
#45=CIRCLE('',#164,155.);
#46=CIRCLE('',#165,155.);
#47=CIRCLE('',#167,233.);
#48=CIRCLE('',#168,233.);
#49=CIRCLE('',#170,336.);
#50=CIRCLE('',#171,336.);
#51=CIRCLE('',#173,254.);
#52=CIRCLE('',#174,254.);
#53=CIRCLE('',#176,177.);
#54=CIRCLE('',#177,177.);
#55=VERTEX_POINT('',#228);
#56=VERTEX_POINT('',#229);
#57=VERTEX_POINT('',#232);
#58=VERTEX_POINT('',#235);
#59=VERTEX_POINT('',#236);
#60=VERTEX_POINT('',#241);
#61=VERTEX_POINT('',#242);
#62=VERTEX_POINT('',#247);
#63=VERTEX_POINT('',#248);
#64=VERTEX_POINT('',#253);
#65=VERTEX_POINT('',#254);
#66=VERTEX_POINT('',#259);
#67=VERTEX_POINT('',#260);
#68=VERTEX_POINT('',#265);
#69=EDGE_CURVE('',#55,#56,#43,.T.);
#70=EDGE_CURVE('',#56,#55,#44,.T.);
#71=EDGE_CURVE('',#56,#57,#29,.T.);
#72=EDGE_CURVE('',#58,#59,#45,.T.);
#73=EDGE_CURVE('',#59,#58,#46,.T.);
#74=EDGE_CURVE('',#59,#56,#30,.T.);
#75=EDGE_CURVE('',#60,#61,#47,.T.);
#76=EDGE_CURVE('',#61,#60,#48,.T.);
#77=EDGE_CURVE('',#61,#59,#31,.T.);
#78=EDGE_CURVE('',#62,#63,#49,.T.);
#79=EDGE_CURVE('',#63,#62,#50,.T.);
#80=EDGE_CURVE('',#63,#61,#32,.T.);
#81=EDGE_CURVE('',#64,#65,#51,.T.);
#82=EDGE_CURVE('',#65,#64,#52,.T.);
#83=EDGE_CURVE('',#65,#63,#33,.T.);
#84=EDGE_CURVE('',#66,#67,#53,.T.);
#85=EDGE_CURVE('',#67,#66,#54,.T.);
#86=EDGE_CURVE('',#67,#65,#34,.T.);
#87=EDGE_CURVE('',#68,#67,#35,.T.);
#88=ORIENTED_EDGE('',*,*,#69,.F.);
#89=ORIENTED_EDGE('',*,*,#70,.F.);
#90=ORIENTED_EDGE('',*,*,#71,.T.);
#91=ORIENTED_EDGE('',*,*,#71,.F.);
#92=ORIENTED_EDGE('',*,*,#72,.F.);
#93=ORIENTED_EDGE('',*,*,#73,.F.);
#94=ORIENTED_EDGE('',*,*,#74,.T.);
#95=ORIENTED_EDGE('',*,*,#70,.T.);
#96=ORIENTED_EDGE('',*,*,#69,.T.);
#97=ORIENTED_EDGE('',*,*,#74,.F.);
#98=ORIENTED_EDGE('',*,*,#75,.F.);
#99=ORIENTED_EDGE('',*,*,#76,.F.);
#100=ORIENTED_EDGE('',*,*,#77,.T.);
#101=ORIENTED_EDGE('',*,*,#73,.T.);
#102=ORIENTED_EDGE('',*,*,#72,.T.);
#103=ORIENTED_EDGE('',*,*,#77,.F.);
#104=ORIENTED_EDGE('',*,*,#78,.F.);
#105=ORIENTED_EDGE('',*,*,#79,.F.);
#106=ORIENTED_EDGE('',*,*,#80,.T.);
#107=ORIENTED_EDGE('',*,*,#76,.T.);
#108=ORIENTED_EDGE('',*,*,#75,.T.);
#109=ORIENTED_EDGE('',*,*,#80,.F.);
#110=ORIENTED_EDGE('',*,*,#81,.F.);
#111=ORIENTED_EDGE('',*,*,#82,.F.);
#112=ORIENTED_EDGE('',*,*,#83,.T.);
#113=ORIENTED_EDGE('',*,*,#79,.T.);
#114=ORIENTED_EDGE('',*,*,#78,.T.);
#115=ORIENTED_EDGE('',*,*,#83,.F.);
#116=ORIENTED_EDGE('',*,*,#84,.F.);
#117=ORIENTED_EDGE('',*,*,#85,.F.);
#118=ORIENTED_EDGE('',*,*,#86,.T.);
#119=ORIENTED_EDGE('',*,*,#82,.T.);
#120=ORIENTED_EDGE('',*,*,#81,.T.);
#121=ORIENTED_EDGE('',*,*,#86,.F.);
#122=ORIENTED_EDGE('',*,*,#87,.T.);
#123=ORIENTED_EDGE('',*,*,#85,.T.);
#124=ORIENTED_EDGE('',*,*,#84,.T.);
#125=ORIENTED_EDGE('',*,*,#87,.F.);
#126=CONICAL_SURFACE('',#160,40.,1.10714871779409);
#127=CONICAL_SURFACE('',#163,117.5,1.24904577239825);
#128=CONICAL_SURFACE('',#166,194.,1.38080803887618);
#129=CONICAL_SURFACE('',#169,284.5,1.52229071455451);
#130=CONICAL_SURFACE('',#172,295.,0.829954641533658);
#131=CONICAL_SURFACE('',#175,215.5,0.994877727176544);
#132=CONICAL_SURFACE('',#178,177.,1.23135595820481);
#133=ADVANCED_FACE('',(#15),#126,.T.);
#134=ADVANCED_FACE('',(#16),#127,.T.);
#135=ADVANCED_FACE('',(#17),#128,.T.);
#136=ADVANCED_FACE('',(#18),#129,.T.);
#137=ADVANCED_FACE('',(#19),#130,.T.);
#138=ADVANCED_FACE('',(#20),#131,.T.);
#139=ADVANCED_FACE('',(#21),#132,.T.);
#140=CLOSED_SHELL('',(#133,#134,#135,#136,#137,#138,#139));
#141=DERIVED_UNIT_ELEMENT(#143,1.);
#142=DERIVED_UNIT_ELEMENT(#272,3.);
#143=(
MASS_UNIT()
NAMED_UNIT(*)
SI_UNIT($,.GRAM.)
);
#144=DERIVED_UNIT((#141,#142));
#145=MEASURE_REPRESENTATION_ITEM('density measure',
POSITIVE_RATIO_MEASURE(1.),#144);
#146=PROPERTY_DEFINITION_REPRESENTATION(#151,#148);
#147=PROPERTY_DEFINITION_REPRESENTATION(#152,#149);
#148=REPRESENTATION('material name',(#150),#269);
#149=REPRESENTATION('density',(#145),#269);
#150=DESCRIPTIVE_REPRESENTATION_ITEM('Generisch','Generisch');
#151=PROPERTY_DEFINITION('material property','material name',#279);
#152=PROPERTY_DEFINITION('material property','density of part',#279);
#153=DATE_TIME_ROLE('creation_date');
#154=APPLIED_DATE_AND_TIME_ASSIGNMENT(#155,#153,(#279));
#155=DATE_AND_TIME(#156,#157);
#156=CALENDAR_DATE(2019,14,1);
#157=LOCAL_TIME(9,28,43.,#158);
#158=COORDINATED_UNIVERSAL_TIME_OFFSET(0,0,.BEHIND.);
#159=AXIS2_PLACEMENT_3D('placement',#226,#179,#180);
#160=AXIS2_PLACEMENT_3D('',#227,#181,#182);
#161=AXIS2_PLACEMENT_3D('',#230,#183,#184);
#162=AXIS2_PLACEMENT_3D('',#231,#185,#186);
#163=AXIS2_PLACEMENT_3D('',#234,#188,#189);
#164=AXIS2_PLACEMENT_3D('',#237,#190,#191);
#165=AXIS2_PLACEMENT_3D('',#238,#192,#193);
#166=AXIS2_PLACEMENT_3D('',#240,#195,#196);
#167=AXIS2_PLACEMENT_3D('',#243,#197,#198);
#168=AXIS2_PLACEMENT_3D('',#244,#199,#200);
#169=AXIS2_PLACEMENT_3D('',#246,#202,#203);
#170=AXIS2_PLACEMENT_3D('',#249,#204,#205);
#171=AXIS2_PLACEMENT_3D('',#250,#206,#207);
#172=AXIS2_PLACEMENT_3D('',#252,#209,#210);
#173=AXIS2_PLACEMENT_3D('',#255,#211,#212);
#174=AXIS2_PLACEMENT_3D('',#256,#213,#214);
#175=AXIS2_PLACEMENT_3D('',#258,#216,#217);
#176=AXIS2_PLACEMENT_3D('',#261,#218,#219);
#177=AXIS2_PLACEMENT_3D('',#262,#220,#221);
#178=AXIS2_PLACEMENT_3D('',#264,#223,#224);
#179=DIRECTION('axis',(0.,0.,1.));
#180=DIRECTION('refdir',(1.,0.,0.));
#181=DIRECTION('center_axis',(0.,-1.,0.));
#182=DIRECTION('ref_axis',(-1.,0.,0.));
#183=DIRECTION('center_axis',(0.,-1.,0.));
#184=DIRECTION('ref_axis',(1.,0.,0.));
#185=DIRECTION('center_axis',(0.,-1.,0.));
#186=DIRECTION('ref_axis',(1.,0.,0.));
#187=DIRECTION('',(-0.894427190999916,0.447213595499958,-1.09535739652841E-16));
#188=DIRECTION('center_axis',(0.,-1.,0.));
#189=DIRECTION('ref_axis',(-1.,0.,0.));
#190=DIRECTION('center_axis',(0.,-1.,0.));
#191=DIRECTION('ref_axis',(1.,0.,0.));
#192=DIRECTION('center_axis',(0.,-1.,0.));
#193=DIRECTION('ref_axis',(1.,0.,0.));
#194=DIRECTION('',(-0.948683298050514,0.316227766016838,-1.16180196436212E-16));
#195=DIRECTION('center_axis',(0.,-1.,0.));
#196=DIRECTION('ref_axis',(-1.,0.,0.));
#197=DIRECTION('center_axis',(0.,-1.,0.));
#198=DIRECTION('ref_axis',(1.,0.,0.));
#199=DIRECTION('center_axis',(0.,-1.,0.));
#200=DIRECTION('ref_axis',(1.,0.,0.));
#201=DIRECTION('',(-0.982006446980647,0.188847393650124,-1.20261105203692E-16));
#202=DIRECTION('center_axis',(0.,-1.,0.));
#203=DIRECTION('ref_axis',(-1.,0.,0.));
#204=DIRECTION('center_axis',(0.,-1.,0.));
#205=DIRECTION('ref_axis',(1.,0.,0.));
#206=DIRECTION('center_axis',(0.,-1.,0.));
#207=DIRECTION('ref_axis',(1.,0.,0.));
#208=DIRECTION('',(-0.998823833424237,0.0484865938555455,-1.22320641051508E-16));
#209=DIRECTION('center_axis',(0.,1.,0.));
#210=DIRECTION('ref_axis',(-1.,0.,0.));
#211=DIRECTION('center_axis',(0.,-1.,0.));
#212=DIRECTION('ref_axis',(1.,0.,0.));
#213=DIRECTION('center_axis',(0.,-1.,0.));
#214=DIRECTION('ref_axis',(1.,0.,0.));
#215=DIRECTION('',(0.737900759021419,0.674909230812273,9.03667802623983E-17));
#216=DIRECTION('center_axis',(0.,1.,0.));
#217=DIRECTION('ref_axis',(-1.,0.,0.));
#218=DIRECTION('center_axis',(0.,-1.,0.));
#219=DIRECTION('ref_axis',(1.,0.,0.));
#220=DIRECTION('center_axis',(0.,-1.,0.));
#221=DIRECTION('ref_axis',(1.,0.,0.));
#222=DIRECTION('',(0.838692381993937,0.544605442853206,1.02710194107814E-16));
#223=DIRECTION('center_axis',(0.,1.,0.));
#224=DIRECTION('ref_axis',(-1.,0.,0.));
#225=DIRECTION('',(0.94294114774077,0.332959444823718,1.15476985836507E-16));
#226=CARTESIAN_POINT('',(0.,0.,0.));
#227=CARTESIAN_POINT('Origin',(0.,252.5,0.));
#228=CARTESIAN_POINT('',(-80.,232.5,0.));
#229=CARTESIAN_POINT('',(80.,232.5,9.79717439317883E-15));
#230=CARTESIAN_POINT('Origin',(0.,232.5,0.));
#231=CARTESIAN_POINT('Origin',(0.,232.5,0.));
#232=CARTESIAN_POINT('',(0.,272.5,0.));
#233=CARTESIAN_POINT('',(40.,252.5,4.89858719658941E-15));
#234=CARTESIAN_POINT('Origin',(0.,220.,0.));
#235=CARTESIAN_POINT('',(-155.,207.5,0.));
#236=CARTESIAN_POINT('',(155.,207.5,1.8982025386784E-14));
#237=CARTESIAN_POINT('Origin',(0.,207.5,0.));
#238=CARTESIAN_POINT('Origin',(0.,207.5,0.));
#239=CARTESIAN_POINT('',(117.5,220.,1.43895998899814E-14));
#240=CARTESIAN_POINT('Origin',(0.,200.,0.));
#241=CARTESIAN_POINT('',(-233.,192.5,0.));
#242=CARTESIAN_POINT('',(233.,192.5,2.85342704201333E-14));
#243=CARTESIAN_POINT('Origin',(0.,192.5,0.));
#244=CARTESIAN_POINT('Origin',(0.,192.5,0.));
#245=CARTESIAN_POINT('',(194.,200.,2.37581479034587E-14));
#246=CARTESIAN_POINT('Origin',(0.,190.,0.));
#247=CARTESIAN_POINT('',(-336.,187.5,0.));
#248=CARTESIAN_POINT('',(336.,187.5,4.11481324513511E-14));
#249=CARTESIAN_POINT('Origin',(0.,187.5,0.));
#250=CARTESIAN_POINT('Origin',(0.,187.5,0.));
#251=CARTESIAN_POINT('',(284.5,190.,3.48412014357422E-14));
#252=CARTESIAN_POINT('Origin',(0.,150.,0.));
#253=CARTESIAN_POINT('',(-254.,112.5,0.));
#254=CARTESIAN_POINT('',(254.,112.5,3.11060286983428E-14));
#255=CARTESIAN_POINT('Origin',(0.,112.5,0.));
#256=CARTESIAN_POINT('Origin',(0.,112.5,0.));
#257=CARTESIAN_POINT('',(295.,150.,3.61270805748469E-14));
#258=CARTESIAN_POINT('Origin',(0.,87.5,0.));
#259=CARTESIAN_POINT('',(-177.,62.5,0.));
#260=CARTESIAN_POINT('',(177.,62.5,2.16762483449081E-14));
#261=CARTESIAN_POINT('Origin',(0.,62.5,0.));
#262=CARTESIAN_POINT('Origin',(0.,62.5,0.));
#263=CARTESIAN_POINT('',(215.5,87.5,2.63911385216255E-14));
#264=CARTESIAN_POINT('Origin',(0.,62.5,0.));
#265=CARTESIAN_POINT('',(0.,0.,0.));
#266=CARTESIAN_POINT('',(177.,62.5,2.16762483449082E-14));
#267=UNCERTAINTY_MEASURE_WITH_UNIT(LENGTH_MEASURE(0.01),#271,
'DISTANCE_ACCURACY_VALUE',
'Maximum model space distance between geometric entities at asserted c
onnectivities');
#268=UNCERTAINTY_MEASURE_WITH_UNIT(LENGTH_MEASURE(0.01),#271,
'DISTANCE_ACCURACY_VALUE',
'Maximum model space distance between geometric entities at asserted c
onnectivities');
#269=(
GEOMETRIC_REPRESENTATION_CONTEXT(3)
GLOBAL_UNCERTAINTY_ASSIGNED_CONTEXT((#267))
GLOBAL_UNIT_ASSIGNED_CONTEXT((#271,#274,#273))
REPRESENTATION_CONTEXT('','3D')
);
#270=(
GEOMETRIC_REPRESENTATION_CONTEXT(3)
GLOBAL_UNCERTAINTY_ASSIGNED_CONTEXT((#268))
GLOBAL_UNIT_ASSIGNED_CONTEXT((#271,#274,#273))
REPRESENTATION_CONTEXT('','3D')
);
#271=(
LENGTH_UNIT()
NAMED_UNIT(*)
SI_UNIT(.MILLI.,.METRE.)
);
#272=(
LENGTH_UNIT()
NAMED_UNIT(*)
SI_UNIT(.CENTI.,.METRE.)
);
#273=(
NAMED_UNIT(*)
SI_UNIT($,.STERADIAN.)
SOLID_ANGLE_UNIT()
);
#274=(
NAMED_UNIT(*)
PLANE_ANGLE_UNIT()
SI_UNIT($,.RADIAN.)
);
#275=SHAPE_DEFINITION_REPRESENTATION(#276,#277);
#276=PRODUCT_DEFINITION_SHAPE('',$,#279);
#277=SHAPE_REPRESENTATION('',(#159),#269);
#278=PRODUCT_DEFINITION_CONTEXT('part definition',#283,'design');
#279=PRODUCT_DEFINITION('Arbeitsraum - DLE-DR-0050-0100',
'Arbeitsraum - DLE-DR-0050-0100',#280,#278);
#280=PRODUCT_DEFINITION_FORMATION('',$,#285);
#281=PRODUCT_RELATED_PRODUCT_CATEGORY('Arbeitsraum - DLE-DR-0050-0100',
'Arbeitsraum - DLE-DR-0050-0100',(#285));
#282=APPLICATION_PROTOCOL_DEFINITION('international standard',
'automotive_design',2009,#283);
#283=APPLICATION_CONTEXT(
'Core Data for Automotive Mechanical Design Process');
#284=PRODUCT_CONTEXT('part definition',#283,'mechanical');
#285=PRODUCT('Arbeitsraum - DLE-DR-0050-0100',
'Arbeitsraum - DLE-DR-0050-0100',$,(#284));
#286=PRESENTATION_STYLE_ASSIGNMENT((#287));
#287=SURFACE_STYLE_USAGE(.BOTH.,#288);
#288=SURFACE_SIDE_STYLE('',(#289));
#289=SURFACE_STYLE_FILL_AREA(#290);
#290=FILL_AREA_STYLE('',(#291));
#291=FILL_AREA_STYLE_COLOUR('',#292);
#292=COLOUR_RGB('',0.749019607843137,0.749019607843137,0.749019607843137);
ENDSEC;
END-ISO-10303-21;
